Song name
# A B C D E F G H I J K L M N O P Q R S T U V W X Y Z

Cameron Mitchell - All My Love tab

                             All My Love- Cameron Mitchell
-------------------------------------------------------------------------------
Tabbed by: Mike H.
Email: edgrralanwaffles@aim.com

Tuning: Standard

    This is my first tab ever, so it might not be 100% accurate, but I think it's 
pretty close for the most part. ENJOY!!!

Intro: x2 
e|--------------------------------------------------------------------------|
B|-0-----------0-----0------------0-----0-----------0----0-----------0------|
G|---0-----0h1---1------0-----0h1---1-----1-----0h1---1----0-----0h1---1----|
D|-----0------------------0-----------------0----------------0--------------|
A|--------------------------------------3-----3-3------3-3-----3-3-------3--|
E|-3-----3-3-------3-3------3-3-------3-------------------------------------|

(On second time, skip last hammer on and following notes, and play this:)
e|----------------------|
B|-0-------3~-----------|
G|---0------------------|
D|-----0----------------|
A|-3-----3--------------|
E|----------------------|

Verse 1:
e|--------------------------------------------------------------------------|
B|-0-----------0-----0------------0-----0-----------0----0-----------0------|
G|---0-----0h1---1------0-----0h1---1-----1-----0h1---1----0-----0h1---1----|
D|-----0------------------0-----------------0----------------0--------------|
A|--------------------------------------3-----3-3------3-3-----3-3-------3--|
E|-3-----3-3-------3-3------3-3-------3-------------------------------------|

e|---------------------------------------------------------------3~~--------|
B|-0-----------0-----0------------0-----0-----------0----0------------------|
G|---0-----0h1---1------0-----0h1---1-----1-----0h1---1----0----------------|
D|-----0------------------0-----------------0----------------0--------------|
A|--------------------------------------3-----3-3------3-3-----3-3~~--------|
E|-3-----3-3-------3-3------3-3-------3-------------------------------------|

e|--------------------------------------------------------------------------|
B|-0-----------0-----0------------0-----0-----------0----0-----------0------|
G|---0-----0h1---1------0-----0h1---1-----1-----0h1---1----0-----0h1---1----|
D|-----0------------------0-----------------0----------------0--------------|
A|--------------------------------------3-----3-3------3-3-----3-3-------3--|
E|-3-----3-3-------3-3------3-3-------3-------------------------------------|

e|--------------------------------------------------------------------------|
B|-0-----------0-----0------------0-----0-----------0-------0--------0------|
G|---0-----0h1---1------0-----0h1---1-----1-----0h1---1--0h1-1---0h1---1----|
D|-----0------------------0-----------------0-------------------------------|
A|--------------------------------------3-----3-3------3-3-----3-3-------3--|
E|-3-----3-3-------3-3------3-3-------3-------------------------------------|

Chorus:
e|-----------------------------------------|
B|-1--------3--------0---------------------|
G|---0--------0--------0------2-0----------|  x3
D|-----2--------4--------2-----------------|
A|-3-----3--5-----5------------------------|
E|-------------------0-----0--2-3----------|

e|---------------------------------------------------------------------|
B|-0h1-1------------0------1------------------1------------------------|
G|-------0------------0------0---------0--------0----------0-----------|
D|-----------------------------2---0h2---2--------0----------0---------|
A|-3-------3--0h2h3-----3--3-----3---------3--0-----0--0h2-----0-------|
E|---------------------------------------------------------------------|

e|-------------------------------------------------|
B|----------------1-1-1-1-1-1-1--------------------|
G|---------0~-----0-0-0-0-0-0-0--------------------|
D|-----0h2--------2-2-2-2-2-2-2--------------------|
A|-0h3------------3-3-3-3-3-3-3--------------------|
E|-------------------------------------------------|

Pre-Verse:
e|--------------------------------------|
B|-0-----------0-----0------------0-----|
G|---0-----0h1---1------0-----0h1---1---|
D|-----0------------------0-------------|
A|--------------------------------------|
E|-3-----3-3-------3-3------3-3-------3-|

Verse 2:
e|--------------------------------------------------------------------------|
B|-0-----------0-----0------------0-----0-----------0----0-----------0------|
G|---0-----0h1---1------0-----0h1---1-----1-----0h1---1----0-----0h1---1----|
D|-----0------------------0-----------------0----------------0--------------|
A|--------------------------------------3-----3-3------3-3-----3-3-------3--|
E|-3-----3-3-------3-3------3-3-------3-------------------------------------|

e|-------------------------------------------------------------------3~-----|
B|-0-----------0-----0------------0-----0-----------0----0------------------|
G|---0-----0h1---1------0-----0h1---1-----1-----0h1---1----0-----0h1--------|
D|-----0------------------0-----------------0----------------0--------------|
A|--------------------------------------3-----3-3------3-3-----3-3----------|
E|-3-----3-3-------3-3------3-3-------3-------------------------------------|

e|--------------------------------------------------------------------------|
B|-0-----------0-----0------------0-----0-----------0----0-----------0------|
G|---0-----0h1---1------0-----0h1---1-----1-----0h1---1----0-----0h1---1----|
D|-----0------------------0-----------------0----------------0--------------|
A|--------------------------------------3-----3-3------3-3-----3-3-------3--|
E|-3-----3-3-------3-3------3-3-------3-------------------------------------|

e|---------------------------------------------------------------3-2--------|
B|-0-----------0-----0------------0-----0-----------0-------0---------------|
G|---0-----0h1---1------0-----0h1---1-----1-----0h1---1--0h1-1--------------|
D|-----0------------------0-----------------0----------------------0--------|
A|--------------------------------------3-----3-3------3-3-----3-3----------|
E|-3-----3-3-------3-3------3-3-------3-------------------------------------|

Chorus:
e|-----------------------------------------|
B|-1--------3--------0---------------------|
G|---0--------0--------0------2-0----------|  x3
D|-----2--------4--------2-----------------|
A|-3-----3--5-----5------------------------|
E|-------------------0-----0--2-3----------|

e|---------------------------------------------------------------------|
B|-0h1-1------------0------1------------------1------------------------|
G|-------0------------0------0---------0--------0----------0-----------|
D|-----------------------------2---0h2---2--------0----------0---------|
A|-3-------3--0h2h3-----3--3-----3---------3--0-----0--0h2-----0-------|
E|---------------------------------------------------------------------|

e|-------------------------------------------------|
B|----------------1-1-1-1-1-1-1--------------------|
G|---------0~-----0-0-0-0-0-0-0--------------------|
D|-----0h2--------2-2-2-2-2-2-2--------------------|
A|-0h3------------3-3-3-3-3-3-3--------------------|
E|-------------------------------------------------|

Break: (Strum)
e|--0-0-00000000--5-5-55555555--0-0-00000000--7-7-7-7-7-7-7-7-7-7-7-7-|
B|--0-0-00000000--7-7-77777777--0-0-00000000--1010109-9-9-7-7-7-9-9-9-|
G|--5-5-55555555--5-5-55555555--7-7-77777777--7-7-7-7-7-7-7-7-7-7-7-7-|
D|--5-5-55555555--7-7-77777777--7-7-77777777--9-9-9-9-9-9-9-9-9-9-9-9-| x2
A|--0-0-00000000--5-5-55555555--5-5-55555555--7-7-7-7-7-7-7-7-7-7-7-7-|
E|--------------------------------------------------------------------|

e|--0-0-00000000--5-5-55555555--0-0-00000000--7--7--7--7--0~---0000000------|
B|--0-0-00000000--7-7-77777777--0-0-00000000--10-9--7--9--0~---0000000------|
G|--5-5-55555555--5-5-55555555--7-7-77777777--7--7--7--7--5~---5555555------|
D|--5-5-55555555--7-7-77777777--7-7-77777777--9--9--9--9--5~---5555555------| 
A|--0-0-00000000--5-5-55555555--5-5-55555555--7--7--7--7--0~---0000000------|
E|--------------------------------------------------------------------------|

Chorus:
e|-----------------------------------------|
B|-1--------3--------0---------------------|
G|---0--------0--------0------2-0----------|  x3
D|-----2--------4--------2-----------------|
A|-3-----3--5-----5------------------------|
E|-------------------0-----0--2-3----------|

e|---------------------------------------------------------------------|
B|-0h1-1------------0------1------------------1------------------------|
G|-------0------------0------0---------0--------0----------0-----------|
D|-----------------------------2---0h2---2--------0----------0---------|
A|-3-------3--0h2h3-----3--3-----3---------3--0-----0--0h2-----0-------|
E|---------------------------------------------------------------------|

e|-----------------------------------------------------------|
B|-1------------------1-------------------1--1111111---------|
G|---0---------0--------0----------0------0--0000000---------|
D|-----2---0h2---2--------0----------0----2--2222222---------|
A|-3-----3---------3--0-----0--0h2-----0--3--3333333---------|
E|-----------------------------------------------------------|

Break 2:

e|--0-0-00000000--5-5-55555555--0-0-00000000--7-7-7-7-7-7-7-7-7-7-7-7-|
B|--0-0-00000000--7-7-77777777--0-0-00000000--1010109-9-9-7-7-7-9-9-9-|
G|--5-5-55555555--5-5-55555555--7-7-77777777--7-7-7-7-7-7-7-7-7-7-7-7-|
D|--5-5-55555555--7-7-77777777--7-7-77777777--9-9-9-9-9-9-9-9-9-9-9-9-| x2
A|--0-0-00000000--5-5-55555555--5-5-55555555--7-7-7-7-7-7-7-7-7-7-7-7-|
E|--------------------------------------------------------------------|

e|--0-0-00000000--5-5-55555555--0-0-00000000--7--7--7--7--0~--0~-------|
B|--0-0-00000000--7-7-77777777--0-0-00000000--10-9--7--9--0~--4~-------|
G|--5-5-55555555--5-5-55555555--7-7-77777777--7--7--7--7--5~--3~-------|
D|--5-5-55555555--7-7-77777777--7-7-77777777--9--9--9--9--5~--5~-------| 
A|--0-0-00000000--5-5-55555555--5-5-55555555--7--7--7--7--0~-----------|
E|---------------------------------------------------------------------|

Outro:
e|---------------------------------------------------------------------3~-|
B|-0-----------0-----0------------0-----0-----------0----0--------3----3~-|
G|---0-----0h1---1------0-----0h1---1-----0-----0h1---1----0------0----0~-|
D|-----0------------------0-----------------0----------------0----0----0~-|
A|-------------------------------------------------------------2--2--2-2~-|
E|-3-----3-3-------3-3------3-3-------3-3-----3-3------3-3-------------3~-|




************************************

| /   slide up
| \   slide down
| h   hammer-on
| p   pull-off
| ~   vibrato
| +   harmonic
| x   Mute note
| b   Bend
| pb  Pre-bend
| br  Bend release
| pbr Pre-bend release
| brb Bend release bend

************************************
Tap to rate this tab
# A B C D E F G H I J K L M N O P Q R S T U V W X Y Z