Song name
# A B C D E F G H I J K L M N O P Q R S T U V W X Y Z

Camila - Mientes tab

Capo 2do Traste !! 

ACORDES:
         654321
F#*------044302
Badd9----224422----224322
Badd9*---424422
E--------022100
E*-------x22452----x22442----x22452
E**------022100----022130----022103
F#sus----244422
G--------320033
Gm#------466444

Intro:

    F#*                       E
e|---------2------------------------------|
b|------0--------0------------------------|
g|---3--------3---------1-----------------|  X3
D|---4------------------2-----------------|
A|---4------------------2-----------------|
E|----------------------------------------|

e|---------2------------------------------|
b|------0---------0------1----3----4------|
g|---3---------3---------2----4----6------|
D|---4------------------------------------|
A|---4------------------------------------|
E|----------------------------------------|

VERSO
e|---------2------------------------------|
b|------0--------0------------------------|
g|---3--------3---------1-----------------|
D|---4------------------2-----------------|
A|---4------------------2-----------------|
E|----------------------------------------|
     Tú llegaste a mi vida para enseñarme

e|---------2------------------------------|
b|------0--------0------------------------|
g|---3--------3---------1-----------------|
D|---4------------------2-----------------|
A|---4------------------2-----------------|
E|----------------------------------------|
     tú, supiste encenderme y luego apagarme

e|---------2------------------------------|
b|------0--------0------------------------|
g|---3--------3---------1-----------------|
D|---4------------------2-----------------|
A|---4------------------2-----------------|
E|----------------------------------------|
     tú, te hiciste indispensable para mi, y... y...

e|---------2------------------------------|
b|------0--------0------------------------|
g|---3--------3---------1-----------------|
D|---4------------------2-----------------|
A|---4------------------2-----------------|
E|----------------------------------------|
     Y con los ojos cerrados te seguí

e|---------2------------------------------|
b|------0--------0------------------------|
g|---3--------3---------1-----------------|
D|---4------------------2-----------------|
A|---4------------------2-----------------|
E|----------------------------------------|
     si yo busqué dolor lo conseguí,

     E
no eres la persona que pensé, que creí, que pedí.

CORO:

 Badd9                                Badd9*
Mientes, me haces daño y luego te arrepientes
                          E*
ya no tiene caso que lo intentes
                         F#sus
no me quedan ganas de sentir

 Badd9                                Badd9*
Llegas cuando estoy a punto de olvidarte
                          E*
busca tu camino en otra parte
                          F#sus
mientras busco el tiempo que perdí
                      E
y hoy estoy mejor sin ti.


F#*      E                      F#*
Voy de nuevo recordando lo que soy,
     E                         F#*
sabiendo lo que das y lo que doy,
E
el nido que buscaste para ti, y... y... y...

F#*      E                          F#*
Y el tiempo hizo lo suyo y comprendí
     E                         F#*
las cosas no suceden porque si,
   E                                            F#sus
no eres la persona que pensé, que creí, que pedí

coro:

Badd9                                Badd9*
Mientes, me haces daño y luego te arrepientes
                          E*
ya no tiene caso que lo intentes
                         F#sus
no me quedan ganas de sentir

 Badd9                                Badd9*
Llegas cuando estoy a punto de olvidarte
                          E*
busca tu camino en otra parte
                          F#sus
mientras busco el tiempo que perdí
                      E   Gm#
y hoy estoy mejor sin ti.
                      E** G
y hoy estoy mejor sin ti,

  (mute)                              Badd9*
Llegas cuando estoy a punto de olvidarte
                          E*
busca tu camino en otra parte
                          F#sus
mientras busco el tiempo que perdí
                      E
y hoy estoy mejor sin ti.
                      Gm#
y hoy estoy mejor sin ti.
                      E**
y hoy estoy mejor sin ti,

Tap to rate this tab
# A B C D E F G H I J K L M N O P Q R S T U V W X Y Z