Camila - Besame tab

Intro: D – F#m (una vez piano)

              D             F#m
e------------7-9---12/14-----------------------|
B-------9-10-------------14-12 / 10—10-9-------|
G-10/11----------------------------------10/11-|
D----------------------------------------------|
A----------------------------------------------|
E----------------------------------------------|


     D         F#m
Bésame, a destiempo
        D          F#m
Sin piedad y en silencio
     D(riff 1)   F#m(riff 2)
Besame, frena el tiempo
        D           F#m-F#7
Has crecer lo que siento

     D    C#m                         F#m(riff 3)E
Besame, como si el mundo se acabara después
     D    C#m                         F#m(riff 4)E
Besame, y beso a beso pon el cielo al revés
     D        C#m         F#m       E   B
Besame, sin razón, porque quiere el corazón
     D
Besame

Puente:

   D         F#m
e-12>>>>>>-7/9>>>>-9-7----|
B-----------------------7-|
G-------------------------|
D-------------------------|
A-------------------------|
E-------------------------|

  D                       F#m
e-----12------10-----7-------|
B-7-10----7-10----7-10----7--|
G----------------------------|
D----------------------------|
A----------------------------|
E----------------------------|

       D         F#m
Sienteme, en el viento
         D         F#m
Mientras yo, muero lento
     D(riff 5)F#m(riff 6)
Besame, sin motivos
      D(fiff 7)F#m       F#7
Y estare, siempre contigo


     D    C#m                         F#m(riff 8)E
Besame, como si el mundo se acabara después
     D    C#m                         F#m(riff 4)E
Besame, y beso a beso pon el cielo al revés
     D        C#m         F#m       E   B
Besame, sin razón, porque quiere el corazón
     D
Besame

Puente:

   D        F#m                      D
e-12>>>>>-7/9-------7/9------7/9-7---7-----|
B--------------7-10-----7-10-------7----10-|
G------------------------------------------|
D------------------------------------------|
A------------------------------------------|
E------------------------------------------|

           F#m
e----------14-14-14-14-14-14-14-14-14-17/0-|
B-9-10-12----------------------------------|
G------------------------------------------|
D------------------------------------------|
A------------------------------------------|
E------------------------------------------|

     D    C#m                         F#m(riff 9)E
Besame, como si el mundo se acabara después
     D    C#m                         F#m(riff 10)E
Besame, y beso a beso pon el cielo al revés
     D        C#m         F#m       E   B
Besame, sin razón, porque quiere el corazón
     D
Besame

D
Besame asi, sin compacion
F#m
Quedate en mi, sin condición
D                  E
Dame tan solo un motivo
           D(riff 1)      F#m(riff 11)
Y me quedo yo (Y me quedo yo)
    (riff 12)D            F#m(riff 13)
Y me quedo yo (Y me quedo yo)

Riffs

1)
e---------|
B---------|
G------11-|
D—9-11----|
A---------|
E---------|

2)
e-----------------------|
B-----------------------|
G----11-9-11-13-9-------|
D-11--------------9 / 7-|
A-----------------------|
E-----------------------|

3)
e-------------|
B-------------|
G-------------|
D------9/11-9-|
A-9-12--------|
E-------------|

4)
e----------------|
B----10-12/14-12-|
G-11-------------|
D----------------|
A----------------|
E----------------|

5)
e---------|
B---------|
G---------|
D-7-9---7-|
A---------|
E---------|

6)
e-------------|
B-------------|
G------9/11-9-|
D-9-11--------|
A-------------|
E-------------|

7)
e------------------|
B------------------|
G------------------|
D---9-9-9-7/9-9-11-|
A-9----------------|
E------------------|

8)
e-----------------|
B-----------------|
G-----------------|
D------9-9-9-9----|
A-9-12---------12-|
E-----------------|

9) Al poner () indico que la cuerda se eleva
e------------------------|
B------------------------|
G------9-11-11-(11)-11-9-|
D-9-11-------------------|
A------------------------|
E------------------------|

10)
e-------------------------|
B----10-12-12-12/14-14-12-|
G-11----------------------|
D-------------------------|
A-------------------------|
E-------------------------|

11)
e--------------------|
B--------------------|
G----11-9-11 / 13-13-|
D-11-----------------|
A--------------------|
E--------------------|

12)van ligados 13)
e-7/9-7--------------------------|
B-------10-9---------------------|
G---------------11-9-------------|
D--------------------11-9--------|
A-------------------------12--9--|
E--------------------------------|
Tap to rate this tab
 
# A B C D E F G H I J K L M N O P Q R S T U V W X Y Z