Song name
# A B C D E F G H I J K L M N O P Q R S T U V W X Y Z

Camila - Coleccionista De Canciones tab

Espero que les guste =)



Intro

pueden tocarlo de 2 maneras pondre ambas y uds escogen cual les gusta mas

Primera forma

-------------------------------------------------------------------------|
----3/5---5/7-----3/4/5-----0----------3--3/5---5/7---3/4/5--0-----------|
----2-----------------------------0-------2-----------------------0----2-|
----0---------------------------0---0-----0---------------------0---0----|
----2-------------0-0---------------------2-----------0-0----------------|
----------------------------3--------------------------------3-----------|

Segunda forma

-------------------------------------------------------------------------|
-----3/5/7---------0------3---3/5/7--------0-----------------------------|
-----4-----6/7/9-------0------4-----6/7/9------0----2--------------------|
-----4---------------0---0----4--------------0---0-----------------------|
-------------------------------------------------------------------------|
-------------------3-----------------------3-----------------------------|

verso

tu                coleccionista de canciones...
------------------------------------3--2--------------3--3/5--------------|
-------3--2-------------3--------3-------3----------3----3/5--------------|
-----2------2---------2---2----0-----------0-----2------------------------|
---0----------0-----------------------------------------------------------|
-------------------2------------------------------------------------------|
-----------------------------3-----------------2--------------------------|

Tu la dueña de mis sueños.....
-----------0------------------------3-2-----------------------------------|
-----3-2/3---3--------------------3-----3-----------3-2-------------------|
----2--------------2-2/4--------0---------0-------2------2----------------|
---0----------------------4---------------------2-----------2-------------|
-----------------2----------------------------1---------------------------|
------------------------------3-------------------------------------------|

y asi en tu misterio poder descubrir....
--------------------------------------------------------------------------|
--------------0-2-3---------------------------------0-2-3-----------------|
--------4------------0------0-------------------4---------0-----0---------|
-----4----4---------------2---0-------4-------4---4-----------2---0-------|
--2---------------------2----------4----4---2---------------2-------------|
---------------------------------2----------------------------------------|
    el sentimiento eterno..
---------------2----------|
------------2-------------|
----------2---------------|
--------4-----------------|
-----4--------------------|
--2-----------------------|

Pre coro
(pueden tocarlos con los acordes normales o usando los sostenidos de G y D =) como quieran)

  G                   D
Tu con la luna en la cabeza
                   G
en lugar en donde empieza
                 Gadd9       A7sus4
el motivo y la ilusion de mi existir

Coro

      D                Gadd9
tan solo tu solamente, quiero que seas tu
  A7sus4         G          Em7              G          A7sus
mi lucura, mi tranquilidad y mi delirio, mi compas y mi camino


    D                 Gadd9
solo tu solamente quiero que seas tu
    A7sus4    G          Dadd11/F#   Em7
y pongo en tus manos mi destino por que
   G               A7sus4
vivo para estar siempre, siempre, siempre
           tocan Intro
contigo amor


1**( para esta parte pondre los acordes abajo)

    D                Bm
Tu coleccionista de canciones
  G(tercer traste*) A (quinto traste*)
mil emociones son para ti
  D(quinto traste*) Bm
tu lo que soñe en mi vida entera
G( tercer traste)    A (Quinto traste)
quedate en ella y hazme sentir

y asi ir transformando la magia de ti
--------------------------------------------------------------------------|
--------------0-2-3---------------------------------0-2-3-----------------|
--------4------------0------0-------------------4---------0-----0---------|
-----4----4---------------2---0-------4-------4---4-----------2---0-------|
--2---------------------2----------4----4---2---------------2-------------|
---------------------------------2----------------------------------------|
 en un respiro del alma
---------------2----------|
------------2-------------|
----------2---------------|
--------4-----------------|
-----4--------------------|
--2-----------------------|


Coro

      D(normal re)                Gadd9
tan solo tu solamente, quiero que seas tu
  A7sus4         G          Em7              G          A7sus
mi lucura, mi tranquilidad y mi delirio, mi compas y mi camino


    D(quinto traste)                 Gadd9
solo tu solamente quiero que seas tu
    A7sus4    G          Dadd11/F#   Em7
y pongo en tus manos mi destino por que
   G               A7sus4
vivo para estar siempre, siempre, siempre

contigo amor

      A#
Ya no queda mas espacio en mi interior
        C*(tercer traste --acorde abajo)
has llenado de ti cada rincon
    A#
es que por ti que con el tiempo mi alma
      G       A7sus4   G    A7sus4
siente diferente

Coro

    D                 Gadd9
solo tu solamente quiero que seas tu
    A7sus4    G          Dadd11/F#   Em7
y pongo en tus manos mi destino por que
   G               A7sus4
vivo para estar siempre, siempre, siempre
         ( y terminan con intro)
contigo amor.


Acordes
        G      A         D         Dadd11/F#    A7sus4
1**   --3--  ---5---- ---5-----   ---3-----   ----3-----
      --3--  ---5---- ---7----    ---3-----   ----3-----
      --4--  ---6---- ---7-----   ---2----    ----2-----
      --5--  ---7---- ---7-----   ---0-----   ----2-----
      --5--  ---7---- ---5-----   ---0-----   ----0-----
      --3--  ---5---- ---5-----   ---2-----   ----------

Bueno creo q eso es todo =) cualquier duda o correcion =) escriban
diego_67_09@hotmail.com y con gusto les aclaro cualquier cosa =) bye.
Tap to rate this tab
 
# A B C D E F G H I J K L M N O P Q R S T U V W X Y Z