Song name
# A B C D E F G H I J K L M N O P Q R S T U V W X Y Z

Camila - Nada tab

Nada
Camila

Intro: E F# A E, E F# A

e------2/4-2------------------------4-7--9-7-7/9-9-|
B--5----------5---5-----------5-7-5----------------|
G----4----------6---4/6-4--4p6---------------------|

e-7/9-12-12b14-12-9--4p5-7--------------|
B--------------------------5/7-5--------|
G--------------------------------4/6-4--|

E
Solamente pienso e ti
F#
Desde el día en que te vi
A                    E
Siento mariposas por dentro

G-2/4-4-|
D-------|

E
Para ti fui un temporal
F#
Una luz artificial
A                       E
Y eso me ha dolido este tiempo

G-----4-----|
D-4/6---6-7-|

F#m                           G#m
Dices que este amor fue un momento
   E        E7       A G#m
Un beso que no existió
F#m              G#m        C#m
Mientras tú me olvidas yo intento
     A
Prenderme a tu corazón

   E      F#    A            E
Y nada, y nada, soy sin tu amor
                   E     F#
Sin tu amor no soy nada, nada
A
Nada, soy sin tu amor

e-7-----------|
B---7-5-------|
G-------4/6-4-|

E
Sabe amarga la verdad
F#
Huele a invierno la ciudad
A                       E
Que sin ti se cubre de hielo
E
Huele a olvido por aquí
F#
Alguien se apartó de mi
A
O tal vez soñaba despierto

G-------1---|
D-----2---4-|
A-2/4-------|

F#m                          G#m
Dices que este amor fue un momento
   E        E7       A G#m
Un beso que no existió
F#m              G#m         C#m
Mientras tú me olvidas yo intento
A
Prenderme a tu corazón

  E       F#   A             E
Y nada, y nada, soy sin tu amor
                   E     F#
Sin tu amor no soy nada, nada
A
Nada, soy sin tu amor

         E                 F#
No puedo respirar, no se como seguir
                A                      E
Porque hasta el aire sobra si no estas aquí
           E                     F#
No quiero despertar, no tengo a donde ir
A
Sé que no hay camino ni destino si tú no estas aquí

E      F#   A            E
No soy nada, soy sin tu amor
                    E    F#
Sin tu amor no soy nada, nada
A
  Soy sin tu amor

E
Solamente pienso e ti
F#
Desde el día en que te vi
A                     E
Siento mariposas por dentro
                                             A
e---------------7--9-7-7p9-9--5-|
B-----5-7-5-7/9---------------5-|
G-4p6-------------------------6-|
D-----------------------------7-|
A-----------------------------7-|
E-----------------------------5-|

E
Para ti fui un temporal
F#
Una luz artificial
A
Y eso me ha dolido este tiempo
Tap to rate this tab
# A B C D E F G H I J K L M N O P Q R S T U V W X Y Z