Guitaretab - guitar tabs
Song name
# A B C D E F G H I J K L M N O P Q R S T U V W X Y Z

Camila - Todo Cambio tab

hey i saw a video of a guy on youtube and liked how he played it so i tabbed it
this is played a long with the intro solo when u strum do it kinda slow then strum down 
but also as soon as ur done strumming quickly lay ur palm on the stings
                                               u play this on the second part
                                                at the end
e   -------1----1----1--1-----------1------    ---1-0------------------|
B   -------1----3----3----3---------2------    ---1-1------------------|
G   -------2----2----3------3----3--3------x2  ---2-2------------------|
D   ---0h3-3----1----3--------3-----3------    ---3-3------------------|
A   -3-----3----3----1--------------1------    ---3-3------------------|
E   -------1----1----1--------------1------    ---1p0------------------|

then that cool guitar comes in with this intro solo
[ Tab from: http://www.guitaretab.com/c/camila/81046.html ]
e   -----------------------------------------------------|
B   -----------------------------6-8----8b--6~~----------|
G   --------5-5h7----------5-7---------------------------|bend 8 b string down slow
D   --5h7----------5h7~~---------------------------------|
A   -----------------------------------------------------|
E   -----------------------------------------------------|


    bend 8 on b up
e   ----------------------------------------5~~~---8h10--8-----------------|
B   ---8b---6--------6--8---8b----6---8b-----------8h10--8-----------------|
G   ------------5-7------------------------------------------10h12--10-----|
D   ---------------------------------------------------------10h12--10-----|
A   -----------------------------------------------------------------------|
E   -----------------------------------------------------------------------|


e   -------------------------------------------------------|
B   ------------6h8----------------------------------------|
G   ---5--5h7--------6~~~s5~~~-----------------------------|
D   -------------------------------------------------------|
A   -------------------------------------------------------|
E   -------------------------------------------------------|
Related for Todo Cambio tab
Todo Cambio chords by Camila