Song name
# A B C D E F G H I J K L M N O P Q R S T U V W X Y Z

Camille - Wet Boy tab

-------------------------------------------------------------------------------
                         WET BOY - Camille
-------------------------------------------------------------------------------
Tabbed by: helicon2
Email: helicon343@gmail.com

Tuning: Standard


Intro:

e|-------3---------------3----------------3---------------3----------|
B|-----0---0-----------0---0------------0---0-----------0---0--------|
G|---0-------0---0---0-------0---0----0-------0---0---0-------0------|
D|-------------------------------------------------------------------|
A|-------------------------------------------------------------------|
E|-3-----------3---2-----------2----0-----------0---0-----------0--2-|

 
e|-------3---------------3----------------3---------------3-------3--|
B|-----0---0-----------0---0------------0---0-----------0-------0----|
G|---0-------0---0---0-------0---0----0-------0---0---0-------0------|
D|-------------------------------------------------------------------|
A|-------------------------------------------------------------------|
E|-3-----------3---2-----------2----0-----------0---0-------2--------|


Verse 1:
             
e|-------3---------------3----------------3---------------3----------|
B|-----0---0-----------0---0------------0---0-----------0---0--------|
G|---0-------0---0---0-------0---0----0-------0---0---0-------0------|
D|-------------------------------------------------------------------|
A|-------------------------------------------------------------------|
E|-3-----------3---2-----------2----0-----------0---0-----------0--2-|

 
e|-------3---------------3----------------3---------------3-------3--|
B|-----0---0-----------0---0------------0---0-----------0-------0----|
G|---0-------0---0---0-------0---0----0-------0---0---0-------0------|
D|-------------------------------------------------------------------|
A|-------------------------------------------------------------------|
E|-3-----------3---2-----------2----0-----------0---0-------3--------|


Chorus 1:

e|-----------------------------------------------------------------|
B|-------3---------------5---------------3---------------0---------|
G|-----0---0-----------0---0-----------0---0-----------0---0-------|
D|---2-------2---2---4-------4-------0-------0---0---0-------0---0-|
A|-3-----------3---5-----------------------------------------------|
E|-----------------------------0-2-3-----------3---3-----------3---|


e|-----------------------------------------------------------------|
B|-------0---------------0---------------0---------------0---------|
G|-----0---0-----------0---0-----------0---0-----------0---0-------|
D|---2-------2---2---4-------4---4---5-------5---5---0-------0---0-|
A|-3-----------3---5-----------5---7-----------7---2-----------2---|
E|-----------------------------------------------------------------|


e|-----------------------------------------------------------------|
B|-------0---------------0---------------0---------------0---------|
G|-----0---0-----------0---0-----------0---0-----------0---0-------|
D|---2-------2---2---4-------4-------0-------0---0---0-------0---0-|
A|-3-----------3---5-----------------------------------------------|
E|-----------------------------0-2-3-----------3---3-----------3---|


Verse 2:
           
e|-------3---------------3----------------3---------------3----------|
B|-----0---0-----------0---0------------0---0-----------0---0--------|
G|---0-------0---0---0-------0---0----0-------0---0---0-------0------|
D|-------------------------------------------------------------------|
A|-------------------------------------------------------------------|
E|-3-----------3---2-----------2----0-----------0---0-----------0--2-|

 
e|-------3---------------3----------------3---------------3-------3--|
B|-----0---0-----------0---0------------0---0-----------0-------0----|
G|---0-------0---0---0-------0---0----0-------0---0---0-------0------|
D|-------------------------------------------------------------------|
A|-------------------------------------------------------------------|
E|-3-----------3---2-----------2----0-----------0---0-------3--------|


Chorus 2:

e|-----------------------------------------------------------------|
B|-------3---------------5---------------3---------------0---------|
G|-----0---0-----------0---0-----------0---0-----------0---0-------|
D|---2-------2---2---4-------4-------0-------0---0---0-------0---0-|
A|-3-----------3---5-----------------------------------------------|
E|-----------------------------0-2-3-----------3---3-----------3---|


e|-----------------------------------------------------------------|
B|-------0---------------0---------------0---------------0---------|
G|-----0---0-----------0---0-----------0---0-----------0---0-------|
D|---2-------2---2---4-------4---4---5-------5---5---0-------0---0-|
A|-3-----------3---5-----------5---7-----------7---2-----------2---|
E|-----------------------------------------------------------------|


e|-----------------------------------------------------------------|
B|-------0---------------0---------------0---------------0---------|
G|-----0---0-----------0---0-----------0---0-----------0---0-------|
D|---2-------2---2---4-------4-------0-------0---0---0-------0---0-|
A|-3-----------3---5-----------------------------------------------|
E|-----------------------------0-2-3-----------3---3-----------3---|


e|-----------------------------------------------------------------|
B|-------0---------------0---------------0---------------0---------|
G|-----0---0-----------0---0-----------0---0-----------0---0-------|
D|---2-------2---2---4-------4---4---5-------5---5---0-------0---0-|
A|-3-----------3---5-----------5---7-----------7---2-----------2---|
E|-----------------------------------------------------------------|


e|---------------------------------------3-------------3----------|
B|-------0---------------0-------------0---0---------0---0--------|
G|-----0---0-----------0---0---------0-------0---0---------0---0--|
D|---2-------2---2---4-------4------------------------------------|
A|-3-----------3---5----------------------------------------------|
E|-----------------------------0-2-3-----------3---3---------3----|


Bridge:

e|-------3---------------5---------------7---------------2----------|
B|-----0---0-----------0---0-----------0---0-----------0---0--------|
G|---0-------0---0---0-------0---0---0-------0---0---0-------0---0--|
D|------------------------------------------------------------------|
A|-3-----------3---5-----------5---7-----------7---2-----------2----|
E|------------------------------------------------------------------|


e|-------3---------------5---------------3---------------3----------|
B|-----0---0-----------0---0-----------0---0-----------0---0--------|
G|---0-------0---0---0-------0-------0-------0---0---0-------0---0--|
D|------------------------------------------------------------------|
A|-3-----------3---5------------------------------------------------|
E|-----------------------------0-2-3-----------3---3-----------3----|


e|-------3---------------5---------------7---------------2----------|
B|-----0---0-----------0---0-----------0---0-----------0---0--------|
G|---0-------0---0---0-------0---0---0-------0---0---0-------0---0--|
D|------------------------------------------------------------------|
A|-3-----------3---5-----------5---7-----------7---2-----------2----|
E|------------------------------------------------------------------|


e|-------3---------------5---------------3---------------3----------|
B|-----0---0-----------0---0-----------0---0-----------0---0--------|
G|---0-------0---0---0-------0-------0-------0---0---0-------0---0--|
D|------------------------------------------------------------------|
A|-3-----------3---5------------------------------------------------|
E|-----------------------------0-2-3-----------3---3-----------3----|


Chorus 3:

e|-----------------------------------------------------------------|
B|-------0---------------0---------------0---------------0---------|
G|-----0---0-----------0---0-----------0---0-----------0---0-------|
D|---2-------2---2---4-------4---4---5-------5---5---0-------0---0-|
A|-3-----------3---5-----------5---7-----------7---2-----------2---|
E|-----------------------------------------------------------------|


e|-----------------------------------------------------------------|
B|-------0---------------0---------------0---------------0---------|
G|-----0---0-----------0---0-----------0---0-----------0---0-------|
D|---2-------2---2---4-------4-------0-------0---0---0-------0---0-|
A|-3-----------3---5-----------------------------------------------|
E|-----------------------------0-2-3-----------3---3-----------3---|


e|-----------------------------------------------------------------|
B|-------0---------------0---------------0---------------0---------|
G|-----0---0-----------0---0-----------0---0-----------0---0-------|
D|---2-------2---2---4-------4---4---5-------5---5---0-------0---0-|
A|-3-----------3---5-----------5---7-----------7---2-----------2---|
E|-----------------------------------------------------------------|


e|------------------------------------|
B|-------0---------------0------------|
G|-----0---0-----------0---0----------|
D|---2-------2---2---4-------4--------|
A|-3-----------3---5------------------|
E|-----------------------------0-2-3--|


Lyrics:

Swim along the stream along the shore
seek between my thighs a hidden fall
sink and swallow

wet boy
do you know what it feels like to be
wet

crawl against the wind inhale the salt
drown and let it melt inside my throat
deep and shallow

wet boy
do you know what it feels like to be
wet

wet boy
do you know what it feels like to be
wet

more water to the world
more water to the seas
more water to the ground
more water to the child I carry

more water to my womb
more water to my brow
more water to my eyes
more water to the man I'll marry

wet boy
do you know what it feels like to be 
wet

wet boy
do you know what it feels like to be
wet
Tap to rate this tab
# A B C D E F G H I J K L M N O P Q R S T U V W X Y Z