Song name
# A B C D E F G H I J K L M N O P Q R S T U V W X Y Z

Camp Kill Yourself - 96 Quite Bitter Things tab

CKY - 96 quite bitter beings
Tuning:eb Bb Gb Db Ab Eb
Email:socksandspoons@hotmail.com
Webpage: http://ckytabs.cjb.net

Intro/Main riff
e----------------------------------------------------------
B----------------------------------------------------------
G----------------------------------------------------------
D-----9------------9-10-9------------10/12-10-9-7-----9----
A-7-10---7-----7-10------10-9-----10--------------10----10-
E--------0---------------------8---------------------------

Verse
Guitar 1
e--------------------------
B--------------------------
G--------------------------
D-2--2--2------6--6--6-----
A-2--2--2------4--4--4-----
E-0--0--0----0-4--4--4-----

Guitar 2
e--------------------------
B--------------------------
G--------------------------
D-9--9--9------6--6--6-----
A-7--7--7------4--4--4-----
E-0--0--0----0-------------

Chorus
e----------------------------------------------------------
B----------------------------------------------------------
G----------------------------------------------------------
D-----9------------9-10-9------------10/12-10-9-7-----9----
A-7-10---7-----7-10------10-9-----10--------------10----10-
E--------0---------------------8---------------------------

Second Verse

Bridge 1

e-0-0-0-0-0-0
B-0-0-0-0-0-0
G-0-0-0-0-0-0
D-9-9-9-9-7-7
A-7-7-7-7-5-5
E-0-0-0-0-0-0

Bridge 2
E-------------------------------------------------
B-------------------------------------------------
G-------------------------------------------------
D-7--7--7--12\7-9--2--2----5--5--5--12\7-9--2--2--
A-5--5--5--10\5-7--2--2----3--3--3--10\5-7--2--2--
E------------------0--0--0------------------0--0--
Tap to rate this tab
# A B C D E F G H I J K L M N O P Q R S T U V W X Y Z