Song name
# A B C D E F G H I J K L M N O P Q R S T U V W X Y Z

Camp Kill Yourself - Flesh Into Gear tab

CKY - Flesh Into Gear

Tuning: Down 1/2 Step

|----------------------------------------------------------------------|
|----------------------------------------------------------------------|
|---------------------------------------6-6-6-6-6--6-6-----------------|
|-------2-2-2-2-2--2-2------------------6-6-6-6-6--6-6-6-4-4-------2-1-|
|-------2-2-2-2-2--2-2-2-----------2----4-4-4-4-4--4-4-------4-4-2-----|
|-------0-0-0-0-0--0-0---4-2-0-2-4-------------------------------------|
P.M-----x-x-x-x----x-x------------------x-x-x-x----x-x-----------------

|----------------------------------------------------------------------|
|----------------------------------------------------------------------|
|---------------------------------------6-6-6-6-6--6-6-----------------|
|-------2-2-2-2-2--2-2------------------6-6-6-6-6--6-6-6-4-4-------2-1-|
|-------2-2-2-2-2--2-2-2-----------2----4-4-4-4-4--4-4-------4-4-2-----|
|-------0-0-0-0-0--0-0---4-2-0-2-4-------------------------------------|
P.M-----x-x-x-x----x-x------------------x-x-x-x----x-x-----------------

|----------------------------------------------------------------------|
|----------------------------------------------------------------------|
|---------------------------------------6-6-6-6-6--6-6-----------------|
|-------2-2-2-2-2--2-2------------------6-6-6-6-6--6-6-6-4-4-------2-1-|
|-------2-2-2-2-2--2-2-2-----------2----4-4-4-4-4--4-4-------4-4-2-----|
|-------0-0-0-0-0--0-0---4-2-0-2-4-------------------------------------|
P.M-----x-x-x-x----x-x------------------x-x-x-x----x-x-----------------

|----------------------------------------------------------------------|
|----------------------------------------------------------------------|
|---------------------------------------6-6-6-6-6--6-6-----------------|
|-------2-2-2-2-2--2-2------------------6-6-6-6-6--6-6-6-4-4-------2-1-|
|-------2-2-2-2-2--2-2-2-----------2----4-4-4-4-4--4-4-------4-4-2-----|
|-------0-0-0-0-0--0-0---4-2-0-2-4-------------------------------------|
P.M-----x-x-x-x----x-x------------------x-x-x-x----x-x-----------------

|----------------------------------------------------------------------|
|----------------------------------------------------------------------|
|---------------------------------------6-6-6-6-6--6-6-----------------|
|-------2-2-2-2-2--2-2------------------6-6-6-6-6--6-6-6-4-4-------2-1-|
|-------2-2-2-2-2--2-2-2-----------2----4-4-4-4-4--4-4-------4-4-2-----|
|-------0-0-0-0-0--0-0---4-2-0-2-4-------------------------------------|
P.M-----x-x-x-x----x-x------------------x-x-x-x----x-x-----------------

|----------------------------------------------------------------------|
|----------------------------------------------------------------------|
|---------------------------------------6-6-6-6-6--6-6-----------------|
|-------2-2-2-2-2--2-2------------------6-6-6-6-6--6-6-6-4-4-------2-1-|
|-------2-2-2-2-2--2-2-2-----------2----4-4-4-4-4--4-4-------4-4-2-----|
|-------0-0-0-0-0--0-0---4-2-0-2-4-------------------------------------|
P.M-----x-x-x-x----x-x------------------x-x-x-x----x-x-----------------

|-------------------------------------------------------------------|
|-------------------------------------------------------------------|
|-------------------------------------------------------------------|
|-------------------------------------------------------------------|
|---7-7-7-7-7-7-7-7-7-7-7-7-9-9-7-7-6-6-6-6-6-6-6-6-6-6-6-6-4-4-6-6-|
|---5-5-5-5-5-5-5-5-5-5-5-5-7-7-5-5-4-4-4-4-4-4-4-4-4-4-4-4-2-2-4-4-|
P.M-x-x-x-x-x-x-x-x-x-x-x-x-x-x-x-x-x-x-x-x-x-x-x-x-x-x-x-x-x-x-x-x-

|-------------------------------------------------------------------|
|-------------------------------------------------------------------|
|-------------------------------------------------------------------|
|-------------------------------------------------------------------|
|---7-7-7-7-7-7-7-7-7-7-7-7-9-9-7-7-6-6-6-6-6-6-6-6-6-6-6-6-4-4-6-6-|
|---5-5-5-5-5-5-5-5-5-5-5-5-7-7-5-5-4-4-4-4-4-4-4-4-4-4-4-4-2-2-4-4-|
P.M-x-x-x-x-x-x-x-x-x-x-x-x-x-x-x-x-x-x-x-x-x-x-x-x-x-x-x-x-x-x-x-x-

|-------------------------------------------------------------------|
|-------------------------------------------------------------------|
|-------------------------------------------------------------------|
|-------------------------------------------------------------------|
|---7-7-7-7-7-7-7-7-7-7-7-7-9-9-7-7-6-6-6-6-6-6-6-6-6-6-6-6-4-4-6-6-|
|---5-5-5-5-5-5-5-5-5-5-5-5-7-7-5-5-4-4-4-4-4-4-4-4-4-4-4-4-2-2-4-4-|
P.M-x-x-x-x-x-x-x-x-x-x-x-x-x-x-x-x-x-x-x-x-x-x-x-x-x-x-x-x-x-x-x-x-

|-------------------------------------------------------------------|
|-------------------------------------------------------------------|
|-------------------------------------------------------------------|
|-------------------------------------------------------------------|
|---7-7-7-7-7-7-7-7-7-7-7-7-9-9-7-7-6-6-6-6-6-6-6-6-6-6-6-6-4-4-6-6-|
|---5-5-5-5-5-5-5-5-5-5-5-5-7-7-5-5-4-4-4-4-4-4-4-4-4-4-4-4-2-2-4-4-|
P.M-x-x-x-x-x-x-x-x-x-x-x-x-x-x-x-x-x-x-x-x-x-x-x-x-x-x-x-x-x-x-x-x-

|----------------------------------------------------------------------|
|----------------------------------------------------------------------|
|---------------------------------------6-6-6-6-6--6-6-----------------|
|-------2-2-2-2-2--2-2------------------6-6-6-6-6--6-6-6-4-4-------2-1-|
|-------2-2-2-2-2--2-2-2-----------2----4-4-4-4-4--4-4-------4-4-2-----|
|-------0-0-0-0-0--0-0---4-2-0-2-4-------------------------------------|
P.M-----x-x-x-x----x-x------------------x-x-x-x----x-x-----------------

|----------------------------------------------------------------------|
|----------------------------------------------------------------------|
|---------------------------------------6-6-6-6-6--6-6-----------------|
|-------2-2-2-2-2--2-2------------------6-6-6-6-6--6-6-6-4-4-------2-1-|
|-------2-2-2-2-2--2-2-2-----------2----4-4-4-4-4--4-4-------4-4-2-----|
|-------0-0-0-0-0--0-0---4-2-0-2-4-------------------------------------|
P.M-----x-x-x-x----x-x------------------x-x-x-x----x-x-----------------

|----------------------------------------------------------------------|
|----------------------------------------------------------------------|
|---------------------------------------6-6-6-6-6--6-6-----------------|
|-------2-2-2-2-2--2-2------------------6-6-6-6-6--6-6-6-4-4-------2-1-|
|-------2-2-2-2-2--2-2-2-----------2----4-4-4-4-4--4-4-------4-4-2-----|
|-------0-0-0-0-0--0-0---4-2-0-2-4-------------------------------------|
P.M-----x-x-x-x----x-x------------------x-x-x-x----x-x-----------------

|----------------------------------------------------------------------|
|----------------------------------------------------------------------|
|---------------------------------------6-6-6-6-6--6-6-----------------|
|-------2-2-2-2-2--2-2------------------6-6-6-6-6--6-6-6-4-4-------2-1-|
|-------2-2-2-2-2--2-2-2-----------2----4-4-4-4-4--4-4-------4-4-2-----|
|-------0-0-0-0-0--0-0---4-2-0-2-4-------------------------------------|
P.M-----x-x-x-x----x-x------------------x-x-x-x----x-x-----------------

|-------------------------------------------------------------------|
|-------------------------------------------------------------------|
|-------------------------------------------------------------------|
|-------------------------------------------------------------------|
|---7-7-7-7-7-7-7-7-7-7-7-7-9-9-7-7-6-6-6-6-6-6-6-6-6-6-6-6-4-4-6-6-|
|---5-5-5-5-5-5-5-5-5-5-5-5-7-7-5-5-4-4-4-4-4-4-4-4-4-4-4-4-2-2-4-4-|
P.M-x-x-x-x-x-x-x-x-x-x-x-x-x-x-x-x-x-x-x-x-x-x-x-x-x-x-x-x-x-x-x-x-

|-------------------------------------------------------------------|
|-------------------------------------------------------------------|
|-------------------------------------------------------------------|
|-------------------------------------------------------------------|
|---7-7-7-7-7-7-7-7-7-7-7-7-9-9-7-7-6-6-6-6-6-6-6-6-6-6-6-6-4-4-6-6-|
|---5-5-5-5-5-5-5-5-5-5-5-5-7-7-5-5-4-4-4-4-4-4-4-4-4-4-4-4-2-2-4-4-|
P.M-x-x-x-x-x-x-x-x-x-x-x-x-x-x-x-x-x-x-x-x-x-x-x-x-x-x-x-x-x-x-x-x-

|-------------------------------------------------------------------|
|-------------------------------------------------------------------|
|-------------------------------------------------------------------|
|-------------------------------------------------------------------|
|---7-7-7-7-7-7-7-7-7-7-7-7-9-9-7-7-6-6-6-6-6-6-6-6-6-6-6-6-4-4-6-6-|
|---5-5-5-5-5-5-5-5-5-5-5-5-7-7-5-5-4-4-4-4-4-4-4-4-4-4-4-4-2-2-4-4-|
P.M-x-x-x-x-x-x-x-x-x-x-x-x-x-x-x-x-x-x-x-x-x-x-x-x-x-x-x-x-x-x-x-x-

|-------------------------------------------------------------------|
|-------------------------------------------------------------------|
|-------------------------------------------------------------------|
|-------------------------------------------------------------------|
|---7-7-7-7-7-7-7-7-7-7-7-7-9-9-7-7-6-6-6-6-6-6-6-6-6-6-6-6-4-4-6-6-|
|---5-5-5-5-5-5-5-5-5-5-5-5-7-7-5-5-4-4-4-4-4-4-4-4-4-4-4-4-2-2-4-4-|
P.M-x-x-x-x-x-x-x-x-x-x-x-x-x-x-x-x-x-x-x-x-x-x-x-x-x-x-x-x-x-x-x-x-

|--------------------------------------------------------|
|--------------------------------------------------------|
|-----6-6--------------------4-4----------------4-6-6-6--|
|-6-4-6-6--6-4---4---4-6-4---4-4--6-4---4---4-6-----6-6--|
|-----4-4------7---7-------7-2-2------7---7---------4-4--|
|--------------------------------------------------------|

|-------------------------------------------------|
|-------------------------------------------------|
|-------------------4-4----------------------2-2--|
|-6-4---4---4-6-4---4-4--------2---------2-1-2-2--|
|-----7---7-------7-2-2------2---4-2---------0-0--|
|------------------------2-4---------4-2----------|

|-----------------------------------------------|
|-----------------------------------------------|
|-------------------4-4----------------4-6-6-6--|
|-6-4---4---4-6-4---4-4--6-4---4---4-6-----6-6--|
|-----7---7-------7-2-2------7---7---------4-4--|
|-----------------------------------------------|

|-----------------------------------------------|
|-----------------------------------------------|
|-------------------4-4----------------4-6-6-6--|
|-6-4---4---4-6-4---4-4--6-4---4---4-6-----6-6--|
|-----7---7-------7-2-2------7---7---------4-4--|
|-----------------------------------------------|

|-------------------------------------------------|
|-------------------------------------------------|
|-------------------4-4----------------------2-2--|
|-6-4---4---4-6-4---4-4--------2---------2-1-2-2--|
|-----7---7-------7-2-2------2---4-2---------0-0--|
|------------------------2-4---------4-2----------|

|-----------------------------------------------|
|-----------------------------------------------|
|-------------------4-4----------------4-6-6-6--|
|-6-4---4---4-6-4---4-4--6-4---4---4-6-----6-6--|
|-----7---7-------7-2-2------7---7---------4-4--|
|-----------------------------------------------|

|----------------------------------------------------------------|
|----------------------------------------------------------------|
|-------------------4-4----------------4-6~---4------------------|
|-6-4---4---4-6-4---4-4--6-4---4---4-6----------6----2-4~--------|
|-----7---7-------7-2-2------7---7-----------------------4-2-----|
|------------------------------------------------------------4-2-|

|-------------------------------------------------------------------|
|-------------------------------------------------------------------|
|-------------------------------------------------------------------|
|-------------------------------------------------------------------|
|---7-7-7-7-7-7-7-7-7-7-7-7-9-9-7-7-6-6-6-6-6-6-6-6-6-6-6-6-4-4-6-6-|
|---5-5-5-5-5-5-5-5-5-5-5-5-7-7-5-5-4-4-4-4-4-4-4-4-4-4-4-4-2-2-4-4-|
P.M-x-x-x-x-x-x-x-x-x-x-x-x-x-x-x-x-x-x-x-x-x-x-x-x-x-x-x-x-x-x-x-x-

|-------------------------------------------------------------------|
|-------------------------------------------------------------------|
|-------------------------------------------------------------------|
|-------------------------------------------------------------------|
|---7-7-7-7-7-7-7-7-7-7-7-7-9-9-7-7-6-6-6-6-6-6-6-6-6-6-6-6-4-4-6-6-|
|---5-5-5-5-5-5-5-5-5-5-5-5-7-7-5-5-4-4-4-4-4-4-4-4-4-4-4-4-2-2-4-4-|
P.M-x-x-x-x-x-x-x-x-x-x-x-x-x-x-x-x-x-x-x-x-x-x-x-x-x-x-x-x-x-x-x-x-

|-------------------------------------------------------------------|
|-------------------------------------------------------------------|
|-------------------------------------------------------------------|
|-------------------------------------------------------------------|
|---7-7-7-7-7-7-7-7-7-7-7-7-9-9-7-7-6-6-6-6-6-6-6-6-6-6-6-6-4-4-6-6-|
|---5-5-5-5-5-5-5-5-5-5-5-5-7-7-5-5-4-4-4-4-4-4-4-4-4-4-4-4-2-2-4-4-|
P.M-x-x-x-x-x-x-x-x-x-x-x-x-x-x-x-x-x-x-x-x-x-x-x-x-x-x-x-x-x-x-x-x-

|-------------------------------------------------------------------|
|-------------------------------------------------------------------|
|-------------------------------------------------------------------|
|-------------------------------------------------------------------|
|---7-7-7-7-7-7-7-7-7-7-7-7-9-9-7-7-6-6-6-6-6-6-6-6-6-6-6-6-4-4-6-6-|
|---5-5-5-5-5-5-5-5-5-5-5-5-7-7-5-5-4-4-4-4-4-4-4-4-4-4-4-4-2-2-4-4-|
P.M-x-x-x-x-x-x-x-x-x-x-x-x-x-x-x-x-x-x-x-x-x-x-x-x-x-x-x-x-x-x-x-x-

|----------------------------------------------------------------------|
|----------------------------------------------------------------------|
|---------------------------------------6-6-6-6-6--6-6-----------------|
|-------2-2-2-2-2--2-2------------------6-6-6-6-6--6-6-6-4-4-------2-1-|
|-------2-2-2-2-2--2-2-2-----------2----4-4-4-4-4--4-4-------4-4-2-----|
|-------0-0-0-0-0--0-0---4-2-0-2-4-------------------------------------|
P.M-----x-x-x-x----x-x------------------x-x-x-x----x-x-----------------

|----------------------------------------------------------------------|
|----------------------------------------------------------------------|
|---------------------------------------6-6-6-6-6--6-6-----------------|
|-------2-2-2-2-2--2-2------------------6-6-6-6-6--6-6-6-4-4-------2-1-|
|-------2-2-2-2-2--2-2-2-----------2----4-4-4-4-4--4-4-------4-4-2-----|
|-------0-0-0-0-0--0-0---4-2-0-2-4-------------------------------------|
P.M-----x-x-x-x----x-x------------------x-x-x-x----x-x-----------------

|----------------------------------------------------------------------|
|----------------------------------------------------------------------|
|---------------------------------------6-6-6-6-6--6-6-----------------|
|-------2-2-2-2-2--2-2------------------6-6-6-6-6--6-6-6-4-4-------2-1-|
|-------2-2-2-2-2--2-2-2-----------2----4-4-4-4-4--4-4-------4-4-2-----|
|-------0-0-0-0-0--0-0---4-2-0-2-4-------------------------------------|
P.M-----x-x-x-x----x-x------------------x-x-x-x----x-x-----------------

|----------------------------------------------------------------------|
|----------------------------------------------------------------------|
|---------------------------------------6-6-6-6-6--6-6-----------------|
|-------2-2-2-2-2--2-2------------------6-6-6-6-6--6-6-6-4-4-------2-1-|
|-------2-2-2-2-2--2-2-2-----------2----4-4-4-4-4--4-4-------4-4-2-----|
|-------0-0-0-0-0--0-0---4-2-0-2-4-------------------------------------|
P.M-----x-x-x-x----x-x------------------x-x-x-x----x-x-----------------

|----------------------------------------------------------------------|
|----------------------------------------------------------------------|
|---------------------------------------6-6-6-6-6--6-6-----------------|
|-------2-2-2-2-2--2-2------------------6-6-6-6-6--6-6-6-4-4-------2-1-|
|-------2-2-2-2-2--2-2-2-----------2----4-4-4-4-4--4-4-------4-4-2-----|
|-------0-0-0-0-0--0-0---4-2-0-2-4-------------------------------------|
P.M-----x-x-x-x----x-x------------------x-x-x-x----x-x-----------------

|----------------------------------------------------------------------|
|----------------------------------------------------------------------|
|---------------------------------------6-6-6-6-6--6-6-----------------|
|-------2-2-2-2-2--2-2------------------6-6-6-6-6--6-6-6-4-4-------2-1-|
|-------2-2-2-2-2--2-2-2-----------2----4-4-4-4-4--4-4-------4-4-2-----|
|-------0-0-0-0-0--0-0---4-2-0-2-4-------------------------------------|
P.M-----x-x-x-x----x-x------------------x-x-x-x----x-x-----------------

|----------------------------------------------------------------------|
|----------------------------------------------------------------------|
|---------------------------------------6-6-6-6-6--6-6-----------------|
|-------2-2-2-2-2--2-2------------------6-6-6-6-6--6-6-6-4-4-------2-1-|
|-------2-2-2-2-2--2-2-2-----------2----4-4-4-4-4--4-4-------4-4-2-----|
|-------0-0-0-0-0--0-0---4-2-0-2-4-------------------------------------|
P.M-----x-x-x-x----x-x------------------x-x-x-x----x-x-----------------

Fades Out At End

Enjoy!
Tap to rate this tab
 
# A B C D E F G H I J K L M N O P Q R S T U V W X Y Z