Song name
# A B C D E F G H I J K L M N O P Q R S T U V W X Y Z

Camp Kill Yourself - Flesh Into Gear tab

TUNING: CKY PLAYS THIS WITH A WHOLE STEP DOWN (D G C F A D) BUT IT SOUND GOOD REGULAR TUNING (E A D G B E)

INTRO
d---------------------------------------------------------------------
A---------------------------------------------------------------------
F---------------------------------------------------------------------
C-----------------------------------7-7-7-7--7--7-7--7-5-------------
G-3--3-3--3--3-3-----------------3--5-5-5-5--5--5-5------5-5-----8-7-
D-1--1-1--1--1-1---5-1-3-1-3-5-------------------------------5-8-----

MAIN RIFF
d-------------------------------------------------------------------4X
A---------------------------------------------------------------------
F---------------------------------------------------------------------
C------------------------------------7-7-7-7--7--7-7--7-5-------------
G--3-3-3-3--3--3-3----------------3--5-5-5-5--5--5-5------5-5-----8-7-
D--1-1-1-1--1--1-1--5-1-3-1-3-5-------------------------------5-8-----

CHORUS
d--------------------------------------4X
A----------------------------------------
F----------------------------------------
C-8-8-8-8-8-8-10-8---7-7-7-7-7-7--5-3----
G-8-8-8-8-8-8-10-8---7-7-7-7-7-7--5-3----
D-6-6-6-6-6-6--8-6---5-5-5-5-5-5--3-1----

MAIN RIFF

CHORUS

SOLO/BRIDGE
d------------------------------------------------------------------
A-----------------------------------------------------------------
F---------------------------------------------------------5-7-----
C-7p5--7--7---7p5---5----5-7-5-----5--5---7p5---5-----5-7---------
G------5--5-------8----8-------8---3--3-------8-----8-------------
D-----------------------------------------------------------------

d------------------------------------------------------------------
A-----------------------------------------------------------------
F-----------------------------------------------------------------
C-7--7---7p5---5----5-7-5-----5--5---------------------3-2--------
G-5--5-------8----8-------8---3--3-----3-5-3-------3--------------
D------------------------------------5-------5-3-1----------------

d------------------------------------------------------------------
A-----------------------------------------------------------------
F---------------------------------------------------5-7-----------
C--------7-5---5----5-7-5-----5--5---7-5---5----5-7---------------
G-3--3-------8----8-------8---3--3-------8----8-------------------
D-1--1------------------------------------------------------------

d------------------------------------------------------------------
A-----------------------------------------------------------------
F-----------------------------------------------------5-7---------
C--7--7---7p5---5----5-7-5-----5--5---7p5---5-----5-7-------------
G--5--5-------8----8-------8---3--3-------8-----8-----------------
D-----------------------------------------------------------------

d-----------------------------------------------------------------
A-----------------------------------------------------------------
F-----------------------------------------------------------------
C-7--7---7p5---5----5-7-5-----5--5---------------------3-2--------
G-5--5-------8----8-------8---3--3-----3-5-3-------3--------------
D------------------------------------5-------5-3-1----------------

d-----------------------------------------------------------------
A-----------------------------------------------------------------
F---------------------------------------------------5-7-----------
C--------7-5---5----5-7-5-----5--5---7-5---5----5-7---------------
G-3--3-------8----8-------8---3--3-------8----8-------------------
D-1--1------------------------------------------------------------

d-----------------------------------------------------------------
A-----------------------------------------------------------------
F-----------------------------------------------------5-7~~~~-----
C--7--7---7p5---5----5-7-5-----5--5---7p5---5-----5-7-------------
G--5--5-------8----8-------8---3--3-------8-----8-----------------
D-----------------------------------------------------------------

d-------------------------
A-------------------------
F-5-----------------------
C---7~-----5~-------------
G--------8------5-3-------
D-------------------5-3---

CHORUS

OUTRO
d------------------------------------------------------------------6X
A--------------------------------------------------------------------
F--------------------------------------------------------------------
C-----------------------------------7-7-7-7--7--7-7--7-5-------------
G-3--3-3--3--3-3-----------------3--5-5-5-5--5--5-5------5-5-----8-7-
D-1--1-1--1--1-1---5-1-3-1-3-5-------------------------------5-8-----

Tap to rate this tab
 
# A B C D E F G H I J K L M N O P Q R S T U V W X Y Z