Song name
# A B C D E F G H I J K L M N O P Q R S T U V W X Y Z

Camper Van Beethoven - Eye Of Fatima tab

Intro (same as the rest of the song):

G Em (x2)
F C G F D (with riff)

Riff:

   F                              C
E ------------------------------------8--|
B ------------------------------6-5---8--|
G --------------------------5-7----5-----|
D --------------------3-5s7--------------|
A ----------------3-5--------------------|
E -1--------1-3s5------------------------|

   G           F             D                                      (G)
E ---------------13------------10-------14---12-------------------------|
B ---------------13------------10-------15------15-13-12----------------|
G -12-------12s14---------10s11----11s14-----------------14-12-11---12--|
D ----------------------------------------------------------------------|
A ----------------------------------------------------------------------|
E ----------------------------------------------------------------------|


             G                    Em
He's got the Eye of Fatima on the wall of his room

    G                         Em
Two bottles of tequila, three cats and a broom

            F (with riff)               C
He's got an 18-year-old angel and she's all dressed in black

         G             F                    D
He's got 15 nickels of cocaine tied up in a sack

And this here's a government experiment and we're driving like hell
To give some cowboys some acid and to stay in motels
We're going to eat up some wide open spaces like it was a cruise on the Nile
Take the hands off the clock, we're going to be here a while

And I am the Eye of Fatima on the wall of the motel room
And cowboys on acid are like Egyptian cartoons
And no one ever conquered Wyoming from the left or from the right
But you can stay in motel rooms and stay up all night
Tap to rate this tab
 
# A B C D E F G H I J K L M N O P Q R S T U V W X Y Z