Song name
# A B C D E F G H I J K L M N O P Q R S T U V W X Y Z

Can - Vitamin C tab

Band / Artist: Can
Song: "Vitamin C"
Album: Ege Bamyasi (1972)

standard tuning

During the verse, which the song begins on, the guitar plays the
 same notes as the bass--palm muted--and plays the upper portion
 of an Em chord during the accents--without muting.

Guitar
VERSE
 PM----------------------------------------------------------|
e----------------------------------------------------------------|
B----------------------------------------------------------------|
G-------------0-------------------------------0------------------|
D---------2-----------2-------------------2-----------2----------|
A-----2-------------------2-----------2-------------------2------|
E-0-------------------------------0------------------------------|

PRE CHORUS
e----------------------------------------------------------------|
B-0-------------------X-X-X---------------------------X-X-X------|
G-0-------------------X-X-X-------0-------------------X-X-X------|
D-2-------------------X-X-X-------5-------------------X-X-X------|
A---------------------------------7------------------------------|
E----------------------------------------------------------------|

CHORUS (play verse/pre chorus until "Your Vitamin C"
Guitar I - strum rapidly
e-8-----------------------9-------8---------------------------0--|
B-7-----------------------7-------7---------------------------0--|
G-8-----------------------8-------8---------------------------0--|
D-7-----------------------7-------7------------------------------|
A----------------------------------------------------------------|
E----------------------------------------------------------------|
Guitar II - strum rapidly
e-2-----------------------5-------2------------------------------|
B-4-----------------------4-------4------------------------------|
G-2-----------------------2-------2------------------------------|
D-4-----------------------4-------4------------------------------|
A----------------------------------------------------------------|
E----------------------------------------------------------------|
Guitar II cont. on second pass
e-2-------------------------------0------------------------0-----|
B-4-------------------------------4------------------------0-----|
G-2-------------------------------2------------------------0-----|
D-4-------------------------------4------------------------2-----|
A----------------------------------------------------------------|
E----------------------------------------------------------------|

That's it. It's a very loose and minimal song for guitar, just listen
 and play along to get the feel right. Please feel free to leave any
 comments, corrections, suggestions, or requests. Cheers!

-Bennyshambles78-

Tap to rate this tab
 
# A B C D E F G H I J K L M N O P Q R S T U V W X Y Z