Song name
# A B C D E F G H I J K L M N O P Q R S T U V W X Y Z

Cancer Bats - Pray For Darkness tab

----------------------------------------------------------------------------
			PRAY FOR DARKNESS - CANCER BATS
----------------------------------------------------------------------------

Tabbed by: Jcruik
Email:jcruik@hotmail.com

Tuning: CFCFAD

Main Riff:

D|-------------------------------------------------------------------------|
A|-------------------------------------------------------------------------|
F|-------------------------------------------------------------------------|
C|-------------------------------------------------------------------------|
F|-6-3-6-6-6-6-3-6-3-2-3--(x3)---------------------------------------------|
C|-6-3-6-6-6-6-3-6-3-2-3---------------------------------------------------|

Riff 2:

D|----------------------|--------------------------------------------------|
A|----------------------|--------------------------------------------------|
F|----------------------|--------------------------------------------------|
C|----------------------|--------------------------------------------------|
F|-6-3-6-6-6-6-3-6-3-2--|-3-3-3-0-0-0-1-1-1-6-6-6--(x2)--------------------|
C|-6-3-6-6-6-6-3-6-3-2--|-3-3-3-0-0-0-1-1-1-6-6-6--------------------------|
                         (only play this bit twice)

Main Riff: x2

'Solo' 1 With Wah:

D|------------t12b~--------------------------------------------------------|
A|-------t9b~--------------------------------------------------------------|
F|--t9b~-------------------------------------------------------------------|
C|-------------------------------------------------------------------------|
F|-------------------------------------------------------------------------|
C|-------------------------------------------------------------------------|

Main Riff: x2

'Solo' 2 With Wah:

D|-------------------------------------------------------------------------|
A|----------t13b~--t16b~--20b~---------------------------------------------|
F|---t13b~-----------------------------------------------------------------|
C|-------------------------------------------------------------------------|
F|-------------------------------------------------------------------------|
C|-------------------------------------------------------------------------|

Main Riff: x3

Riff 2:

D|----------------------|--------------------------------------------------|
A|----------------------|--------------------------------------------------|
F|----------------------|--------------------------------------------------|
C|----------------------|--------------------------------------------------|
F|-6-3-6-6-6-6-3-6-3-2--|-3-3-3-0-0-0-1-1-1-6-6-6--(x3)--------------------|
C|-6-3-6-6-6-6-3-6-3-2--|-3-3-3-0-0-0-1-1-1-6-6-6--------------------------|
                         (only play this bit three times)


Breakdown:

D|-------------------------|-----------------------------------------------|
A|-------------------------|-----------------------------------------------|
F|-------------------------|-----------------------------------------------|
C|-------------------------|-----------------------------------------------|
F|-3-3-3-3-3-3-1-1-1-1-1-1-|-2-2-2-0-0-0-6-6-6-3-6~---(x3)--2-2-2-0-0-0----|
C|-3-3-3-3-3-3-1-1-1-1-1-1-|-2-2-2-0-0-0-6-6-6-3-6~---------2-2-2-0-0-0----|
                         (only play this bit twice)

Main Riff: x5

Outro Solo With Wah:

D|-------------t10b~--13b~-13b~-13b~-15b~-15b~-15b~-17b~-------------------|
A|--------t9b~-------------------------------------------------------------|
F|--t9b~-------------------------------------------------------------------|
C|-------------------------------------------------------------------------|
F|-------------------------------------------------------------------------|
C|-------------------------------------------------------------------------|


| /  slide up
| \  slide down
| h  hammer-on
| p  pull-off
| ~  vibrato
| +  harmonic
| x  Mute note
===============================================================================
Tap to rate this tab
 
# A B C D E F G H I J K L M N O P Q R S T U V W X Y Z