Song name
# A B C D E F G H I J K L M N O P Q R S T U V W X Y Z

Cancer Bats - Bastards Waltz tab

Help us improve GuitareTab! Take a short survey!
-------------------------------------------------------------------------------
			CANCER BATS - BASTARDS WALTZ!
-------------------------------------------------------------------------------
Tabbed by: icarus_complex

Tuning: C# G# C# F# A# D#

3/4 timing

This song is kickass. Tuning is probably supposed to be in Drop C cuz thats 
usually how Scott Middleton plays, but i figured it out in Drop C# so i'm 
just gonna tab it like that. Its still possible even to play it in Drop D 
too if you dont feel like tuning down at all.

Sorry about the solo if its giving you trouble, but go easy on me, its my 
first tab so its probably not perfect. Anyways, here it is.

Intro:
D#|--------|----------------------------------------------------------------------------|
A#|-3b4r3--|-3---------3---------3---------6--8--6--3---------3---------3---------3s6~--|
F#|-3b4r3--|-3---------3---------3---------6--8--6--3---------3---------3---------3s6~--|
C#|-3b4r3--|-3-5--5--5-3-5--5--5-3-5--5--5-6--8--6--3-5--5--5-3-5--5--5-3-5--5--5-3s6~--|
G#|--------|---5--5--5---5--5--5---5--5--5------------5--5--5---5--5--5---5--5--5-------|
C#|--------|---5--5--5---5--5--5---5--5--5------------5--5--5---5--5--5---5--5--5-------|


D#|----------------------------------------------------------------------------------|
A#|--3---------3---------3---------3--6--3--8b9r8-6--3s6~----------------------------|
F#|--3---------3---------3---------3--6--3--8b9r8-6--3s6~----------------------------|
C#|--3-5--5--5-3-5--5--5-3-5--5--5-3--6--3--8b9r8-6--3s6~----------------------------|
G#|----5--5--5---5--5--5---5--5--5--------------------------\\\\\\\\\----------------|
C#|----5--5--5---5--5--5---5--5--5--------------------------\\\\\\\\\----------------|


Verse1:
D#|----------------------------------------------------------------------------------|
A#|--3---------3---------3---------6h8-6~---3---------3---------3---------3s6~-------|
F#|--3---------3---------3---------6h8-6~---3---------3---------3---------3s6~-------|
C#|--3-5--5--5-3-5--5--5-3-5--5--5-6h8-6~---3-5--5--5-3-5--5--5-3-5--5--5-3s6~-------|
G#|----5--5--5---5--5--5---5--5--5------------5--5--5---5--5--5---5--5--5------------|
C#|----5--5--5---5--5--5---5--5--5------------5--5--5---5--5--5---5--5--5------------|
PM     .  .  .   .  .  .   .  .  .            .  .  .   .  .  .   .  .  .  
 

D#|----------------------------------------------------------------------------------|
A#|--3---------3---------3---------3--6--3--6--8b9r8-6~------------------------------|
F#|--3---------3---------3---------3--6--3--6--8b9r8-6~------------------------------|
C#|--3-5--5--5-3-5--5--5-3-5--5--5-3--6--3--6--8b9r8-6~--xxxx------------------------|
G#|----5--5--5---5--5--5---5--5--5-----------------------xxxx------------------------|
C#|----5--5--5---5--5--5---5--5--5-----------------------xxxx------------------------|
PM     .  .  .   .  .  .   .  .  .


Verse2:
D#|----------------------------------------------------------------------------------|
A#|--3---------3---------3---------6h8-6~---3---------3---------3---------3s6~-------|
F#|--3---------3---------3---------6h8-6~---3---------3---------3---------3s6~-------|
C#|--3-5--5--5-3-5--5--5-3-5--5--5-6h8-6~---3-5--5--5-3-5--5--5-3-5--5--5-3s6~-------|
G#|----5--5--5---5--5--5---5--5--5------------5--5--5---5--5--5---5--5--5------------|
C#|----5--5--5---5--5--5---5--5--5------------5--5--5---5--5--5---5--5--5------------|
PM     .  .  .   .  .  .   .  .  .            .  .  .   .  .  .   .  .  .  


D#|----------------------------------------------------------------------------------|
A#|--3---------3---------3---------3--6--3--8b9r8-6--3s6~----------------------------|
F#|--3---------3---------3---------3--6--3--8b9r8-6--3s6~----------------------------|
C#|--3-5--5--5-3-5--5--5-3-5--5--5-3--6--3--8b9r8-6--3s6~----------------------------|
G#|----5--5--5---5--5--5---5--5--5--------------------------/////////----------------|
C#|----5--5--5---5--5--5---5--5--5--------------------------/////////----------------|
PM     .  .  .   .  .  .   .  .  .


CHORUS: X2
D#|----------------------------------------------------------------------------------|
A#|----------------------------------------------------------------------------------|
F#|----------------------------------------------------------------------------------|
C#|--5-5-5-5-5-5-5-5-5-5-5-5-8-8-8-8-8-8-11--13--11----------------------------------|
G#|--5-5-5-5-5-5-5-5-5-5-5-5-8-8-8-8-8-8-11--13--11----------------------------------|
C#|--5-5-5-5-5-5-5-5-5-5-5-5-8-8-8-8-8-8-11--13--11----------------------------------|
                                               
     
                                                  (After second time)
D#|----------------------------------------------|-----------------------------------|
A#|----------------------------------------------|-----------------------------------|
F#|----------------------------------------------|-----------------------------------|
C#|--5-5-5-5-5-5-5-5-5-5-5-5-8-8-8-8-8-8-3--1--3-|-5------------5--------------------|
G#|--5-5-5-5-5-5-5-5-5-5-5-5-8-8-8-8-8-8-3--1--3-|-5------------5--------------------|
C#|--5-5-5-5-5-5-5-5-5-5-5-5-8-8-8-8-8-8-3--1--3-|-5------------5--------------------|


Verse3:
D#|----------------------------------------------------------------------------------|
A#|--3---------3---------3---------6h8-6~---3---------3---------3---------3s6~-------|
F#|--3---------3---------3---------6h8-6~---3---------3---------3---------3s6~-------|
C#|--3-5--5--5-3-5--5--5-3-5--5--5-6h8-6~---3-5--5--5-3-5--5--5-3-5--5--5-3s6~-------|
G#|----5--5--5---5--5--5---5--5--5------------5--5--5---5--5--5---5--5--5------------|
C#|----5--5--5---5--5--5---5--5--5------------5--5--5---5--5--5---5--5--5------------|
PM     .  .  .   .  .  .   .  .  .            .  .  .   .  .  .   .  .  .  


D#|----------------------------------------------------------------------------------|
A#|--3---------3---------3---------3--6--3--8b9r8-6--3s6~----------------------------|
F#|--3---------3---------3---------3--6--3--8b9r8-6--3s6~----------------------------|
C#|--3-5--5--5-3-5--5--5-3-5--5--5-3--6--3--8b9r8-6--3s6~----------------------------|
G#|----5--5--5---5--5--5---5--5--5--------------------------/////////----------------|
C#|----5--5--5---5--5--5---5--5--5--------------------------/////////----------------|
PM     .  .  .   .  .  .   .  .  .


CHORUS: X2
D#|----------------------------------------------------------------------------------|
A#|----------------------------------------------------------------------------------|
F#|----------------------------------------------------------------------------------|
C#|--5-5-5-5-5-5-5-5-5-5-5-5-8-8-8-8-8-8-11--13--11----------------------------------|
G#|--5-5-5-5-5-5-5-5-5-5-5-5-8-8-8-8-8-8-11--13--11----------------------------------|
C#|--5-5-5-5-5-5-5-5-5-5-5-5-8-8-8-8-8-8-11--13--11----------------------------------|
                                               
                                                   
D#|----------------------------------------------------------------------------------|
A#|----------------------------------------------------------------------------------|
F#|----------------------------------------------------------------------------------|
C#|--5-5-5-5-5-5-5-5-5-5-5-5-8-8-8-8-8-8-3--1--3-------------------------------------|
G#|--5-5-5-5-5-5-5-5-5-5-5-5-8-8-8-8-8-8-3--1--3-------------------------------------|
C#|--5-5-5-5-5-5-5-5-5-5-5-5-8-8-8-8-8-8-3--1--3-------------------------------------|


D#|----------------------------------------------------------------------------------|
A#|----------------------------------------------------------------------------------|
F#|----------------------------------------------------------------------------------|
C#|--5-5--5--3--1--3--5-5--5--3--1--3--5-5--5--3--1--3--5-5--5--3--1--3--------------|
G#|--5-5--5--3--1--3--5-5--5--3--1--3--5-5--5--3--1--3--5-5--5--3--1--3--------------|
C#|--5-5--5--3--1--3--5-5--5--3--1--3--5-5--5--3--1--3--5-5--5--3--1--3--------------|


Solo: You need a crazy distorted wah expression for the solo
D#|--15------------------------------------------------------------------------------|
A#|--15-------------------------6s3-3-3s6-6-6s3-3-3-6-6s8-8-8-8-6-6-8b9r8--6--s/6~---|
F#|--------6b-*7r6-*3--3s6-6----6s3-3-3s6-6-6s3-3-3-6-6s8-8-8-8-6-6-8b9r8--6--s/6~---|
C#|----------------------------------------------------------------------------------|
G#|----------------------------------------------------------------------------------|
C#|----------------------------------------------------------------------------------|



D#|-----------------------|
A#|-----------------------|
F#|-----------------------|
C#|--3--1--3--5/s-----X3--|
G#|--3--1--3--5/s---------|
C#|--3--1--3--5/s---------|


D#|---------------------------------------|
A#|---------------------------------------|
F#|---------------------------------------|
C#|--3--1--3--5----5-------------3--1--3--|
G#|--3--1--3--5----5--/////////--3--1--3--|
C#|--3--1--3--5----5--/////////--3--1--3--|


CHORUS: X4
D#|----------------------------------------------------------------------------------|
A#|----------------------------------------------------------------------------------|
F#|----------------------------------------------------------------------------------|
C#|--5-5-5-5-5-5-5-5-5-5-5-5-8-8-8-8-8-8-11--13--11----------------------------------|
G#|--5-5-5-5-5-5-5-5-5-5-5-5-8-8-8-8-8-8-11--13--11----------------------------------|
C#|--5-5-5-5-5-5-5-5-5-5-5-5-8-8-8-8-8-8-11--13--11----------------------------------|
                                               
     
                                                
D#|----------------------------------------------------------------------------------|
A#|----------------------------------------------------------------------------------|
F#|----------------------------------------------------------------------------------|
C#|--5-5-5-5-5-5-5-5-5-5-5-5-8-8-8-8-8-8-3--1--3-------------------------------------|
G#|--5-5-5-5-5-5-5-5-5-5-5-5-8-8-8-8-8-8-3--1--3-------------------------------------|
C#|--5-5-5-5-5-5-5-5-5-5-5-5-8-8-8-8-8-8-3--1--3-------------------------------------|


D#|----------------------------------------------------------------------------------|
A#|----------------------------------------------------------------------------------|
F#|----------------------------------------------------------------------------------|
C#|--5-5--5--3--1--3--5-5--5--3--1--3--5-5--5--3--1--3--5-5--5--3--1--3--------------|
G#|--5-5--5--3--1--3--5-5--5--3--1--3--5-5--5--3--1--3--5-5--5--3--1--3--------------|
C#|--5-5--5--3--1--3--5-5--5--3--1--3--5-5--5--3--1--3--5-5--5--3--1--3--------------|

D#|-----------------------|-------------------|
A#|------------------(X4)-|-------------------|
F#|-----------------------|-------------------|
C#|--5-5-5-5-5-5-3--1--3--|--5-5-5-5-5-5-5/s--|
G#|--5-5-5-5-5-5-3--1--3--|--5-5-5-5-5-5-5/s--|
C#|--5-5-5-5-5-5-3--1--3--|--5-5-5-5-5-5-5/s--|
PM   . . . . . .             . . . . . .         


Hope you enjoyed the tab! Feel free to leave any comments or corrections!


| s     Slide
| s\    Slide up from nothing
| /s    Slide down to nothing
| h     Hammer-on
| p     Pull-off
| ~     Vibrato
| x     Muted note
| b     Bend
| r     Release bend
| *     Pinch harmonic
| \\\\\ Pick slide
===============================================================================
Related for Bastards Waltz tab