Song name
# A B C D E F G H I J K L M N O P Q R S T U V W X Y Z

Cancer Bats - Sabotage tab

Cancer Bats - Sabotage (Beastie Boys Cover)

This tab was taken from the Cancer Bats' live session on radio 1, on the 24th January
This isn't 100% dead on, but it's close.
It's very easy and fun to play. Enjoy!

Tuning: Db Ab Db Gb Bb Eb

Intro

E|--------------------------|
B|--------------------------|
G|--------------------------|
D|----7----7----7-7-7-7-7-7-|
A|----7----7----7-7-7-7-7-7-|
E|----7----7----7-7-7-7-7-7-|
                . . . . . . (.)pm

Repeat palm mute as many times as necessary, release slowly before the scream/ugh.


Main Riff

E|----------------------------------|
B|----------------------------------|
G|------5------5-----5-----5--------|
D|----7-5--7-7-5-7-7-5-7-7-5-7-7-5--|
A|----7----7-7---7-7---7-7---7-7----|
E|----7----7-7---7-7---7-7---7-7----|

Scott varies the pinch harmonic, it's always on the 5th fret, but sometimes he does it 
the G string.

Riff after Main

E|----------------------------------------|
B|----------------------------------------|
G|------5-5-5---5-5-5---5-5-5---5-5-7-7-7-|
D|----7-5-5-5-7-5-5-5-7-5-5-5-7-5-5-7-7-7-|
A|----7-------7-------7-------7-----------|
E|----7-------7-------7-------7-----------|

0.59-1.08

E|---------------------------------------------|
B|-----14b-15b-15b-14b-15b-15b-14b-15b-15b-14--|b
G|---------------------------------------------|
D|---------------------------------------------|
A|---------------------------------------------|
E|----0--0-------------------------------------|

Solo - (Post Scream/Rawr)

For the solo, strum the D|-7
                        A|-7
                        E|-7

until it goes into the solo. (NOTE: Scott uses wah alot, especially on the solo + pre solo)


E|--------------------------------------------------|
B|--------------------------------------------------|
G|--------------------------------------------------|
D|-----5-5555-555-7-7777-777-5-5555-555-7-7777-7777-|
A|--------------------------------------------------|
E|--------------------------------------------------|

E|-----------------------------------------------------------------------------|
B|-----------------------------------------------------------------------------|
G|-12-12121212-121212-14-14141414-141414---------------------------------------|
D|--------------------------------------10h11h13-10h11h13-10h11-15h16p15h16p15-|
A|-----------------------------------------------------------------------------|
E|-----------------------------------------------------------------------------|


Bridge
E|--------------------|
B|--------------------|
G|----------------7-7-|
D|----7-7-7-7-7-7-7-7-|
A|----7-7-7-7-7-7-7-7-|
E|----7-7-7-7-7-7-7-7-|
      . . . . . .

Play and palm mute as many times as necessary, slowly release palm mute and play the 2
shown on the left (the two that aren't palm muted)

And that's it.

I am not posting the order of which to play what part, as it's easy enough to figure
I figured that if you were looking this up, you'd know.

Sorry if the explanations sounded vague at times, I just don't know any other way to put them.

Enjoy!
Tap to rate this tab
# A B C D E F G H I J K L M N O P Q R S T U V W X Y Z