Song name
# A B C D E F G H I J K L M N O P Q R S T U V W X Y Z

Cancer Bats - Zeds Dead Baby tab

-----------------------------------------------------------------------------
			     Zed's Dead Baby - Cancer Bats
-----------------------------------------------------------------------------
Tabbed by: _KurtCobain_77
Email: inkeepingsecretsofsilentearth@live.com

Tuning: Drop C
part 1 ['honestly! I hope we all survive']
e|--------------------------------------------------------------------------|
B|--------------------------------------------------------------------------|
G|-----------------5--------------------------------------------------------|
D|-444444-0---5--9----------------------------------------------------------|
A|-444444-0--5-5------------------------------------------------------------|
E|-444444-0-----------------------------------------------------------------|
part 2 ['And I know one day will be brighter']
e|--------------------------------------------------------------------------|
B|--------------------------------------------------------------------------|
G|--------------------------------------------------------------------------|
D|-44444/0-7-77777----------------------------------------------------------|
A|-44444/0-7-77777----------------------------------------------------------|
E|-44444/0-7-77777----------------------------------------------------------|
part 3 [Chorus 'BETTER OFF DEAD!']
e|--------------------------------------------------------------------------|
B|--------------------------------------------------------------------------|
G|--------------------------------------------------------------------------|
D|-3-3-3--7777777-----------------------------------------------------------|
A|-3-3-3--7777777-----------------------------------------------------------|
E|-3-3-3--7777777-----------------------------------------------------------|
part 4 [post chorus 'Held breath but it never got better']
e|--------------------------------------------------------------------------|
B|--------------------------------------------------------------------------|
G|--------------------------------------------------------------------------|
D|-7-7-7h9/4-4-4-3-3-3-2-2-2------------------------------------------------|
A|-7-7-7h9/4-4-4-3-3-3-2-2-2------------------------------------------------|
E|-7-7-7h9/4-4-4-3-3-3-2-2-2------------------------------------------------|

The key to this song is listening for the palm mutes and rhythm changes. The four parts 
reused throughout the song and part one is also the outro, the tempo is just slowed.

rate and comment please.


************************************

| /   slide up
| \   slide down
| h   hammer-on
| p   pull-off
| ~   vibrato
| +   harmonic
| x   Mute note
| b   Bend
| pb  Pre-bend
| br  Bend release
| pbr Pre-bend release
| brb Bend release bend

************************************
Tap to rate this tab
# A B C D E F G H I J K L M N O P Q R S T U V W X Y Z