Song name
# A B C D E F G H I J K L M N O P Q R S T U V W X Y Z

Cancer Bats - 100 Grand Canyon tab

Tabbed by: Nash Bussieres

Email: spazing_rem@yahoo.ca

Tuning: One Whole Step Down (D G C F A d)

I really wasn't loving the intros that were on here, so i decided to learn the song on 
own. This is my first tab, so any comments and suggestions would be greatly appreciated.
P.S. In the first few riffs, the harmonics of the 3's aren't as strong, noticeable, 
as the ones on the 2's or 4's.

Intro Slide
d|-------|
A|-------|
F|-------|
C|-------|
G|-------|
D|-1/9\1-|

Riff 1
d|--------------------------|
A|--------------------------|
F|--------------------------|
C|--------------------------|
G|---3*3*---2*b3r2---000000-|
D|-0------0--------0--------|

Riff 2
d|-------------------------------|
A|-------------------------------|
F|-------------------------------|
C|-------------------------------|
G|---3*3*---2*b3r2---00000-------|
D|-0------0--------0-------1/9\1-|

Riff 3
d|--------------------------------------------------------|
A|--------------------------------------------------------|
F|--------------------------------------------------------|
C|--------------------------------------------------------|
G|---3*3*---2*b3r2---000000---3*3*---2*b3r2---0-4*p2p0-4*-|
D|-0------0--------0--------0------0--------0-------------|

Riff 4
d|-------------------------------------------------------|
A|-------------------------------------------------------|
F|-------------------------------------------------------|
C|-------------------------------------------------------|
G|---3*3*---2*b3r2---000000---3*3*---2*b3r2---0-44*4*44*-|
D|-0------0--------0--------0------0--------0------------|

Chorus pt 1
d|-------------------------------------|
A|-------------------------------------|
F|-------------------------------------|
C|----------6666666x----------6666666x-|
G|-7777777x-4444444x-7777777x-4444444x-|
D|-5555555x----------5555555x----------|

Chorus pt 2
d|----------------|
A|----------------|
F|----------------|
C|------6------4*-|
G|-77-7-4-77-7----|
D|-55-5---55-5----|

Chorus pt 3
d|---------------------|
A|---------------------|
F|---------------------|
C|---------------------|
G|-77-7-4-77-7-4-------|
D|-55-5-2-55-5-2-1/9\1-|

Bridge pt 1
d|---------------------------------------------|
A|---------------------------------------------|
F|---------------------------------------------|
C|---------------------------------------------|
G|-4-2p1h2h4-2p1h2h4-4-4-2p1h2h4-4p2p1h2p1-1h2-|
D|---------------------------------------------|

Bridge pt 2
d|-----------------------|
A|-----------------------|
F|-----------------------|
C|-----------------------|
G|-7-xx-4-x-4h5-00-4h5-0-|
D|-5-xx-2-x--------------|

Bridge pt 3
d|-------------------------|
A|-------------------------|
F|-------------------------|
C|-------------------------|
G|-7-xx-4-44-77-55-4444----|
D|-5-xx-2-22-55-33-2222----|
pm        .. .. .. ....

Bridge pt 4
d|--------------------------------------------------|
A|--------------------------------------------------|
F|--------------------------------------------------|
C|--------------------------------------------------|
G|-55-44-2222-x-77-55-4444-55-44-2222-x-77-55-4/555-|
D|-33-22-0000-x-55-33-2222-33-22-0000-x-55-33-2/333-|
pm .. .. ....   .. .. .... .. .. ....   .. ..

Bridge pt 5
d|-----------------------------------------------------|
A|-----------------------------------------------------|
F|-----------------------------------------------------|
C|-----------------------------------------------------|
G|-55-44-2222-x-77-55-4444-55-44-2222-x-77-55-44-------|
D|-33-22-0000-x-55-33-2222-33-22-0000-x-55-33-22-1/9\1-|
pm .. .. ....   .. .. .... .. .. ....   .. .. ..

I finished the tab without listening to the song, so the order from the bridge on may 
a little tweaking, but all the parts are right.

Atleast I hope they are.

Leave comments and suggestions, as well as corrections, since this is my first tab.

Order

Intro Slide x1
Riff 1 x1
Riff 2 x1
Riff 1 x1
Riff 3 x1
Riff 1 x1
Riff 2 x1
Riff 1 x1
Riff 4 x1
Chorus pt 1 x2
Chorus pt 2 x3
Chorus pt 3 x1
Riff 1 x1
Riff 3 x1
Riff 1 x1
Riff 4 x1
Bridge pt 1 x4
Bridge pt 2 x3
Bridge pt 3 x1
Bridge pt 2 x1
Bridge pt 3 x1
Bridge pt 2 x1
Bridge pt 3 x1
Bridge pt 4 x1
Bridge pt 5 x1
Riff 1 x1
Riff 3 x1
Riff 1 x1
Riff 4 x1
Chorus pt 1 x4

| /  slide up
| \  slide down
| h  hammer-on
| p  pull-off
| ~  vibrato
| x  Mute note
| * pinch harmonic
| b bend
| r release
============================================================================
Tap to rate this tab
 
# A B C D E F G H I J K L M N O P Q R S T U V W X Y Z