Guitaretab - guitar tabs
Song name
# A B C D E F G H I J K L M N O P Q R S T U V W X Y Z

Cancer - Witch Hunt tab

Witch Hunt
by Cancer
from the album To The Gory End
Version 666 Jul-09
Tabbed by Walter Viadana


Tune guitar to D


Riff 1 x1
|---------------------------------------------------|
|---------------------------------------------------|
|---------------------------------------------------|
|---------------------------------------------------|
|---2-2-----2-----2-----2-----2-2-----2-----2-2-2---|
|---0-0-----0-----0-----0-----0-0-----0-----0-0-0---|
[ Tab from: http://www.guitaretab.com/c/cancer/190257.html ]
Riff 2 x4 (Fast)
|---------------------------------------------------------------------|
|---------------------------------------------------------------------|
|---------------------------------------------------------------------|
|---------------------------------------------------------------------|
|---------------------------------------------------8-8-8-8-10-10-8---|
|---7-7-7-7-5-5-5-7-7-7-7-10-10-8-8---7-7-7-7-5-5-5-------------------|

Riff 3 x2

Riff 3a
|-------------------------------------|
|-------------------------------------|
|-------------------------------------|
|-------------------------------2-2---|
|---2-2-2-2-2-2-2-2-3-3-3-3-3-3-0-0---|
|---0-0-0-0-0-0-0-0-1-1-1-1-1-1-------|
                 

Riff 3b
|---------------------------------------|
|---------------------------------------|
|---------------------------------------|
|-----------------------2---2-2---------|
|---2-2-2-2-2-2-2-2-2-2-0---0-0--3--3---|
|---0-0-0-0-0-0-0-0-0-0----------1--1---|
             

Riff 2 x4 
Riff 3 x2

Riff 4
|-----------------------------------|
|-----------------------------------|
|-----------------------------------|
|---2------------2------------------|
|---2--------3-3-2--------7-5-8-7---|
|---0--------1-1-0--------5-3-6-5---|

Thats All
Enjoy

Related for Witch Hunt tab