Song name
# A B C D E F G H I J K L M N O P Q R S T U V W X Y Z

Cancer - To The Gory End tab

Tuning Is D G C F A D , slight palm mute / Slide ... Palm Mute H-hammer on P pull off X 
DON"T PLAY THAT STRING
Opening Riff 1 at 0:28
D------------------------------X-----|
A-----------------------------X------|
F-------------------------------X----|
C------9/-----8/--------5/-----------|
G-7/-----6/-------3/-----------------|
D-------------------------------X----|
Riff-2 0:54
D-------------------------------------------------------X-----|
A-------------------------------------------------------X-----|
F-------------------------------------------------------X-----|
C-------------------------------------------------------X-----|
G--------2/3/-1-----------------------------------------------|
D-0-----------------------------------------------------------|
,,, ,,, ,,, ,,, ,,, ,,, ,,, ,,, ,,, ,,
Riff-3 1:23
D----------------------------X--|
A----------------------------X--|
F----------------------------X--|
C----------------------------X--|
G------3/-------2h3p0-----------|
D-1/----------------------------|
Go back and forth With Riff 2, And 3
Riff-4 2:00
D---------------------------------X-------|
A---------------------------------X-------|
F----------------------------------X------|
C-----------------------------------------|
G--2---------3-------2-----3--------------|
D--0----1---------0----1------------------|
Riff-5 2:28
D---------------------------------------------X-------|
A---------------------------------------------X-------|
F----------------------------------------------X------|
C------------------------------------------------X----|
G------2-3--2---1-------------------------------------|
D-0---0-----------------------------------------------|
Go back and forth with Riff 4, and 5
Riff-6 Solo 3:23
D------------------------------X--------|
A------------------------------x--------|
F----------9/--------8/----5/-----------|
C------9/-------8/------5/--------------|
G--7/-----6/-------3/-------------------|
D---------------------------------X-----|
Repeat

Guitar II
D--------------------------------------X------|
A--------------------------------------X------|
F---------------------------------------X-----|
C-----9/-------8/--------5-/------------------|
G-7/------6/---------3-/----------------------|
D------------------------------------------X--|
Repeat
3:49 riff 2 riff 3 at 4:02 then and go back and forth listen to the song
Tap to rate this tab
# A B C D E F G H I J K L M N O P Q R S T U V W X Y Z