Song name
# A B C D E F G H I J K L M N O P Q R S T U V W X Y Z

Cancer - Ouija tab

H-Hammer On P Pull off ... Palm mute / Slide
Tuning is D G C F A D X DONT PLAY THAT STRING!!



intro Riff 1 0:00- 0:35

play 4 and let 5 ring
D-------------------------------X-|
A-------------------------------X-|
F-------------------------------X-|
C--------5------------------------|
G-------------------------------X-|
D----4----------------------------|

Riff-2 0:35

D--------------------------------------------x-|
A-------------------------------------------x--|
F-------------------------------------------x--|
C--------------------------------------------x-|
G-----------2----------------------------------|
D------0---------------------------------------|

... ... ... ... ... ... ... ...

Then back to riff 1 go to riff 2 play it several times

Riff-3 1:06
D-------------------------------------------X---|
A--------------------------------------------X--|
F--------------------------------------------X--|
C-------2h3p------------------------------------|
G-------------9/----------8/--------7-/---------|
D------7/----------6/----------5/---------------|

then play riff 2 Really fast and I mean really fast then back and for with riff 2 and 3

2:04 riff 4 same as riff 2

D----------------------------------------|
A----------------------------------------|
F----------------------------------------|
C----------------------------------------|
G-------2--------------------------------|
D---0------------------------------------|

... ... ... ... ... .. ... ...

and play riff 4 through the solo

2:33 play intro all the way to 3:06

D------------------------------|
D------------------------------|
F------------------------------|
C------------------------------|
G------------------------------|
D-----------0-----0------------|

Play D Open all the way through
Tap to rate this tab
# A B C D E F G H I J K L M N O P Q R S T U V W X Y Z