Song name
# A B C D E F G H I J K L M N O P Q R S T U V W X Y Z

Cancer - Solar Prophecy tab

     Cancer-Solar Prophecy  2005

Tuning is D G C F A D T-Tap H-hammer on P-Pull off / Slide X DON"T PLAY THAT STRING! ... 
Palm Mute ,,, Sight palm mute

Opening Riff-1 part one

D-------------------------|
A-----5-------------------|
F-------------------------|
C---------7---------------|
G--5----------------------|
D----------------------X--|

Guitar II riff-2

D-----------------------X----|
A------------------------X---|
F--5--7----4----5----0-------|
C------------------------X---|
G-------------------------X--|
D--------------------------X-|

0:43 ...Palm Mute Riff-1, and Riff-2

Riff-3 At 1;02

D-----------------------------------------------X--------|
A-----------------------------------------------X--------|
F------------------------------------------------X-------|
C------3-----0-------------------------------------------|
G-1-----0---------3/------4/------5----------------------|
D-----------1/-------2/-------3/-------------------------|

,,, ,,, ,,, ,,, ,,, ,,, ,,,

1:21 Back to riff 1, and 2 1:41 Plam mute riff 1 and 2

2:00 back to riff 3

Riff 4 2:20

D------------------------------------------X-----|
A-------------------------------------------X----|
F--------------------------------------------X---|
C--------------------------------------------X---|
G----2--------4-------------------------------X--|
D-0----2---------------------------------------X-|

,,, ,,, ,,, ,,, ,,, ,,, ,,, ,,





2:35 back to riff 1 and 2 2:57 Palm mute riff 1 and 2

riff 3 at 3:16-3:32 Riff 4

Riff-5 4:09 stop

Riff-5 4:16 repete many times

D-------------------X-----------|
A--------------------X----------|
F--------------------X----------|
C-----------3---2---------------|
G---2--2------------------------|
D---------------------X---------|

5:04 Solo Part

D------------------------------------------|
A---------------------------------x--------|
F---T-12-----9-8--10-----------------------|
C-----------------------------------x------|
G-----------------------------------X------|
D-----------------------------------X------|

Guitar II

D--------------------------------------|
A-----------------------------------X--|
F-----------------------------------X--|
C-----------------------------------X--|
G---2----------------------------------|
D--0-----------------------------------|

,,, ,,,, ,,,, ,,, ,,, .... ,..... ...

Play Guitar II Through the whole solo at 5:21-7:33 That's all,folks
Tap to rate this tab
# A B C D E F G H I J K L M N O P Q R S T U V W X Y Z