Song name
# A B C D E F G H I J K L M N O P Q R S T U V W X Y Z

Cancer - Spirit In Flames tab

 Cancer-Spirit In Flames


                                          Spelcial Legend Key:



                              = Slight Palm Mute ,,,
                              = Palm Mute ...


                              = Tuning: D G C F A D

                              = Slide /

                              = Info: Be sure to Listen to spirit in flames And look at the tab
                                               And I might post the solo some other time :D



                               This is by ear, It sounds right to me, Hope you will like it :D



             Intro Riff 1 0:00


D---------------------------------|
A---------------------------------|
F---------------------------------|
C------5/-----4/------------------|
G-3/------2/----------------------|
D---------------------------------|


,, ,,, ,,, ,, ,,



          O:05 Intro Riff 2


D--------------------------------|
A--------------------------------|
F--------------------------------|
C-----------2--------------------|
G--2--3--------------------------|
D--------------------------------|





Then Back To Riff-1 And 2, Play several Times


Chorus riff 0:27-0:52


D------------------------------------|
A------------------------------------|
F------------------------------------|
C--------3/----4/-------3/-----------|
G--1/------2/-----1/-----------------|
D------------------------------------|

Repeat



O:52-1:19  Back to riff 1, and 2



1:19 Chrous riff


1:44-3:00 Riff 3 Play through the solo


D------------------------------------|
A------------------------------------|
F------------------------------------|
C--------4/--------5/------3/--------|
G---2/-------3/--------1/------------|
D------------------------------------|
,,, ,,, ,,, ,,, ,,, ,,,


Repeat


3:00 Back to riff 1 and 2 and also play through the 2nd solo


3:27 Chorus riff


3:40-3:46 Outro Riff (Same As Intro)


D-------------------------------|
A-------------------------------|
F-------------------------------|
C--------------4----------------|
G--------2----------------------|
D-------------------------------|


Down Strokes, I think....


Thanks to, and tabbed by Oak And Aspen
Tap to rate this tab
 
# A B C D E F G H I J K L M N O P Q R S T U V W X Y Z