Song name
# A B C D E F G H I J K L M N O P Q R S T U V W X Y Z

Cancer - Witch Hunt tab

Cancer Witch Hunt Ver2

Special Legend key:


= Slide /


= Slight palm Mute ,,,

= Palm Mute ...


= X Don't play that string

Tuning D G C F A D



Intro Riff-1 0:00-0:03

D-------------------X--------------------------------------|
A-------------------X--------------------------------------|
F-------------------X--------------------------------------|
C-------------------X--------------------------------------|
G---2----2----2----2-----2----2------2--2----2---2---------|
D---0-----0---0-----0-----0-----0-----0---0----0---0---0---|

Riff-2

D-------------------------X--|
A-------------------------X--|
F-------------------------X--|
C--------------------------X-|
G-2-0-3-4/-5--2--------------|
D-------------------------X--|

Repeat Many times

Riff-3 0:18 Take a listen to this part And repeat Many times

D-----------------------X-|
A-----------------------X-|
F-----------------------X-|
C-----------------------X-|
G-------2---3-------------|
D--0-----1----------------|

0:31 Back To Riff 2 Repeat many times

0:46 Back to riff-3

Riff-4 0:59

D----------------------------X---|
A----------------------------X---|
F----------------------------X---|
C----------------------------X---|
G---2-----2-----3-----3----------|
D-0---0------1----1--------------|

,,, ,,, ,,,, ,,,, ,,,,

D G Second Part Palm mute

1:28 back to riff 2

1:41 riff 3

1:51 riff 4

2:21 2:49 Riff-2

Outro (Same As Intro) 2:49-2:51

May not be 100% Right, but be sure to take a listen to the song first
Tap to rate this tab
 
# A B C D E F G H I J K L M N O P Q R S T U V W X Y Z