Song name
# A B C D E F G H I J K L M N O P Q R S T U V W X Y Z

Cancer - Black Faith tab

Cancer-Black Faith Intro (1995)

H-Hammer on Tuning Is D G C F A D
Intro Part
D-------5-----------------|
A------5------------------|
F-----5-------7-----------|
C----5------7-------------|
G---5---------------------|
D--5----------------------|

All the 5's on the 5th fret Is A Bar Chord

Intro Part 2
D----------------------------|
A----------------------------|
F-----------------0----------|
C----------------0-----------|
G---------------0------------|
D--------------0-------------|
up stroke
Intro Part 3
D--------------------------|
A--------------------------|
F--------------------------|
C-----------7--------------|
G--------------------------|
D------5-----0h6-----------|
Tap to rate this tab
 
# A B C D E F G H I J K L M N O P Q R S T U V W X Y Z