Song name
# A B C D E F G H I J K L M N O P Q R S T U V W X Y Z

Cancer - Hellhouse tab

Cancer-Hellhouse 2005

Spelcial Legend key:

= Hammer on-H
= Pull Off

=Info Take a listen to the song and solo I suggest to play the song, and guitar at the same time



= Plam Mute ...
= Slight palm Mute ,,,,


= Slide /

= Tuning: D G C F A D

= T-Tap

Intro 0:21-0:48 riff 1

D-----------------------------------|
A-----------------------------------|
F-----------------------------------|
C-----------------------------------|
G----7--7--7-----5---6--5--5-3------|
D---0---0--0----0----0--------------|

0:48 riff 2

D----------------------------------|
A----------------------------------|
F----------------------------------|
C----------------------------------|
G-------2--------4/--5/------6/----|
D---0-------2/---3/-------4/-------|

Then Back to riff 1

1:14 riff 3

D-------------------------------|
A-------------------------------|
F-------------------------------|
C-------------------------------|
G-------2---------3------2------|
D---0--------1---------0--------|

,,,, ,,, ,,, ,,, ,,, ,,, ,,, ,,, ,,

1:46 Chorus riff 4

D----5--------------------------|
A----5--------------------------|
F----5---------7----------------|
C----5--------7-----------------|
G----5--------------------------|
D----5--------------------------|

All the 5's there mean A 'Bar' Chord

2:04-2:34 back to riff 3

2:34
Play riff 1 Through solo if you cant play i

Solo 2:45-3:12

Ehh, May not be right, but it is my best guess

2:58, I hear like a hammer on and a tap so play 7 hammer on 8 many times kinda like a tap



This is not the whole solo

D----------------------------------------------------------------|
A------------13----10----10h11------7h8t-------------------------|
F------------12----9-----10h11-----9h10--8h9---7h8--6h7---4------|
C----------------------------------------------------------------|
G----------------------------------------------------------------|
D----------------------------------------------------------------|

3:15 Back to riff 2

3:44 Chrous riff

4:04-6:09

D---------------------------|
A---------------------------|
F---------------------------|
C---------------------------|
G------2----2----5----------|
D--0------0------3----------|

,,, ,,, ,,, ,,, ,,, ,,,

6:15-6:43 Acoustic Part Still Tuned To D Standard Finger picking I think

D---3-----------------------|
A---3-----------------------|
F---3-------5---------------|
C---3-------5---------------|
G--3------------------------|
D--3------------------------|

The 3 On the Frets are a another bar chord

That's all In May be not 100 Percent right, but it's pretty close Enjoy!
Tap to rate this tab
# A B C D E F G H I J K L M N O P Q R S T U V W X Y Z