Song name
# A B C D E F G H I J K L M N O P Q R S T U V W X Y Z

Cancer - Hung Drawn And Quartered tab

#----------------------------------PLEASE NOTE---------------------------------#
#This file is the author's own work and represents their interpretation of the #
#song. You may only use this file for private study, scholarship, or research. #
#------------------------------------------------------------------------------##
Thanks to And tabbed by User,Oak And Aspen E-mail aamathia@yahoo.com




                       Cancer-Hung,Drawn And Quartered

                                Special Legend Key:
                          Slide-/
                         Palm Mute-...
                       Slight Palm Mute-,,,

Tuning Is: D G C F A D (D-Standard)

Note, Please take a listen to the song before playing this.

Note,This Is A LONG intro Riff



D------------------------------------|
A------------------------------------|
F------------------------------------|
C------------------------------------|
G------------------------------------|
D-0--0--0---0--0-----0---0----0---0--|
D------------------------------------|

A-----------------------------------|
F-----------------------------------|
C-----------------------------------|
G-7-7-7-7-7-7-7-7-7-7-7-7-----------|
D-----------------------------------|
D-----------------------------------|

A-----------------------------------|
F-----------------------------------|
C-----------------------------------|
G-7-7-7-7-7-7-7-7-7-7-7-7-----------|




D-----------------------------------|
D-----------------------------------|
A-----------------------------------|
F-----------------------------------|
C-----------------------------------|
G-7-7-7-7-7-7-7-7-7-7-7-7-----------|


D-----------------------------------|
D-----------------------------------|
A-----------------------------------|
F-----------------------------------|
C-----------------------------------|
G-----------------------------------|


D-0--0--0---0--0-----0---0----0---0---|
D-------------------------------------|
A-------------------------------------|
F-------------------------------------|
C-------------------------------------|
G-------------------------------------|
D--3-3-3--3--3---3--3--2-2--2--2---2--|


D-------------------------------------|
A-------------------------------------|
F-------------------------------------|
C-------------------------------------|
G-------------------------------------|
D--3-3-3--3--3---3--3--2-2--2--2---2--|


D------------------------------------------- D------------------------------------|
A------------------------------------------- A------------------------------------|
F------------------------------------------- F------------------------------------|
C------------------------------------------- C------------------------------------|
G--------------------------------7----8----- G-----------------------------5---4--|
D--0----0---0----0---0--0--0----5----6------ D--0--0-0--0--0-0--0--0-0-0-3---6----|



D--------------------------------------------- D-------------------------------------|
A--------------------------------------------- A-------------------------------------|
F--------------------------------------------- F-------------------------------------|
C--------------------------------------------- C-------------------------------------|
G-------------------------------------7---8--- G-----------------------5-----6----3--|
D-0---0------0-----0-----0----0--0--5----6---- D--0--0--0---0---0-----3----4---1-----|


RIFF 2 1:15


D----------------------------------|
A----------------------------------|
F----------------------------------|
C----------------------------------|
G-----2-----------3-------5--------|
D-0----0-0------1---0--0--3--------|


,,, ,,, ,,, ,,, ,,,, ,,, ,,, ,,,


Chrous Riff 3


D----------------------------------|
A----------------------------------|
F----------------------------------|
C----------------------------------|
G-------2--------3-----------------|
D----0-------1---------------------|


2:02 Riff 1

2:20 Riff 2


Then through the solo rythmn

D------------------------|
A------------------------|
F------------------------|
C------------------------|
G------------------------|
D-0-0--0-0--0--0--0------|


3:11 Chorus riff 3
Tap to rate this tab
# A B C D E F G H I J K L M N O P Q R S T U V W X Y Z