Song name
# A B C D E F G H I J K L M N O P Q R S T U V W X Y Z

Cancer - Back From The Dead tab

#----------------------------------PLEASE NOTE---------------------------------#
#This file is the author's own work and represents their interpretation of the #
#song. You may only use this file for private study, scholarship, or research. #
#------------------------------------------------------------------------------##

Tabbed Out And thanks to,Oak And Aspen. E-Mail aamathia.com



Special Legend key:


H-Hammer On
P-Pull Off
/-Slide
Tuning: D G C F A D (D-Standard)

Vibrato-~
Slight Palm Mute-,,,
Palm Mute-...
Note: Take A listen to the song



Intro 0:00-0:12 X4

D-------------------------------|
A-------------------------------|
F---------8-8h9p8---------------|
C---10-9~---------10-9----------|
G---7---------------------8-7---|
D---0---------------------------|

Here is another part of the intro,that you can do If you want I mean Both Of Them
Sound the same just in deffering places

I


Intro 0:00-0:12

D----------------------------------|
A------------------4h5p4-----------|
F-------5--4--------------4--5-----|
C--2------------2---------------3~-|
G----------------------------------|
D----------------------------------|





GR2

D------------------------|
A------------------------|
F------------------------|
C-------7----------------|
G----0-------------------|
D------------------------|





0:11 Riff 1

D----------------------------------|
A----------------------------------|
F----------------------------------|
C-------5--4-------1h2p1--4--5-----|
G--2----3--2--------------2--3--3--|
D--0------------0---------------1--|





Riff 2 O:28


D------------------------------------------------------------|
A------------------------------------------------------------|
F------------------------------------------------------------|
C------------------------------1------1-------------------7--|
G--4------4------3------3------3--333-3--333-6---------6-----|
D--2--222-2--222-1--111-1--111---------------4--444-4--------|

,,, ,,, ,,, ,,, .... ... ...



0:49 Riff 1



Riff- 3 1:03-1:30

D------------------------------------------|
A------------------------------------------|
F------------------------------------------|
C------------------------------------------|
G------4/---------3/--------4/-----3/------|
D-2/-----------1/------2/----1/------------|

1:30-1:50 Riff 2


1:50 Riff 3


2:10-2:46 riff 4

D--------------------------------|
A--------------------------------|
F--------------------------------|
C--------------------------------|
G------2----3--------------------|
D--0-----1-----------------------|

... ... ... ... ... ... ,,, ,,, ,,,

Riff-5 2:46

D--------------------------------------------------|
A--------------------------------------------------|
F-----4-5-7------5---------------------------------|
C----4~-5------5-4~----2--2-4-5-4------------------|
G--------------------------------------------------|
D--------------------------------------------------|

3:00 Riff 6

D-----------------------------------------------------------------------------|
A----------------------------12-11--------------------------------------------|
F-----11-10------11-10------11-10-------11-10-------11-10-------11-10------11-|
C------12-11-----12-11------------------12-11-------12-11-------12-11-9--7----|
G-----------------------------------------------------------------------------|
D-----------------------------------------------------------------------------|

Riff 2 Thorugh the solo (Solo Rythmn)

Riff 1 3:36

Riff 3 3:49

Riff 2 4:18

End (Outro Same As Intro)

D-------------------------------|
A-------------------------------|
F---------8-8h9p8---------------|
C---10-9~---------10-9----------|
G---7---------------------8-7---|
D---0---------------------------|

That's all,Enjoy! :D
Tap to rate this tab
# A B C D E F G H I J K L M N O P Q R S T U V W X Y Z