Song name
# A B C D E F G H I J K L M N O P Q R S T U V W X Y Z

Cancer - To The Gory End tab

Band: Cancer
Song: To The Gory End
Album: To The Gory End
Hey dudes this is my first tab email me if there are mistakes/corrections.
Email: damianstevecarr@gmail.com
Tuning: DGCFAD

Intro:

d|------------------------------------------------------------------|
A|------------------------------------------------------------------|
F|--9---------8---------5-5-5-5-5-5-5-5-5---------------------------|
C|--9---------8---------5-5-5-5-5-5-5-5-5---------------------------|
G|--7-7-7-7-7-6-6-6-6-6-3-3-3-3-3-3-3-3-3---------------------------|
D|------------------------------------------------------------------|

Main Riff:

d|------------------------------------------------------------------|
A|------------------------------------------------------------------|
F|------------------------------------------------------------------|
C|--0000000-7p5-8p7p5-0000000-7p5-8p7p5--0000000-7p5-8p7p5----------|
G|------------------------------------------------------------------|
D|------------------------------------------------------------------|

d|------------------------------------------------------------------|
A|------------------------------------------------------------------|
F|------------------------------------------------------------------|
C|------------------------------------------------------------------|
G|--000000000000000000----------------------------------------------|
D|------------------------------------------------------------------|

Chorus:
                   +  +  +
d|------------------------------------------------------------------|
A|------------------------------------------------------------------|
F|------------------------------------------------------------------|
C|--2--9--8--7--2---------------------------------------------------|
G|--2--9--8--7--2---------------------------------------------------|
D|--0--7--6--5--0--7--6--5~-----------------------------------------|

Other Riffs XP:

d|------------------------------------------------------------------|
A|------------------------------------------------------------------|
F|------------------------3-----------------------------4-3-2~------|
C|------------------------3---------------------------2-------------|
G|------------------------1-------------------------2---------------|
D|--0-0-0000-0-0-0-0000-0----0-0-0000-0-0-0-0000-0------------------|

d|------------------------------------------------------------------|
A|------------------------------------------------------------------|
F|--------------------3-----------------------4-3-2~----------------|
C|--------------------3---------------------2-----------------------|
G|--------------------1-------------------2-------------------------|
D|--0-0-0-0-0-0-0-0-0---0-0-0-0-0-0-0-0-0---------------------------|

d|------------------------------------------------------------------|
A|------------------------------------------------------------------|
F|-----------3---------1-----2-----1---2---1---2--------------------|
C|--2--------3----3----0-0-0-0-0-0-0-0-0-0-0-0-0--------------------|
G|--2--------1----3-------------------------------------------------|
D|--0----0-3------1-------------------------------------------------|

d|------------------------------------------------------------------|
A|------------------------------------------------------------------|
F|-----------3------------------------------------------------------|
C|--2--------3----3----1-----2-----1---2---1---2--------------------|
G|--2--------1----3----0-0-0-0-0-0-0-0-0-0-0-0-0--------------------|
D|--0----0-3------1-------------------------------------------------| x2

d|------------------------------------------------------------------|
A|------------------------------------------------------------------|
F|------------------------------------------------------------------|
C|------------------------------------------------------------------|
G|--1-----2-----1---2---1---2---4-----5-----4---5---4---5-----------|
D|--0-0-0-0-0-0-0-0-0-0-0-0-0-0-3-3-3-3-3-3-3-3-3-3-3-3-3-----------|

d|------------------------------------------------------------------|
A|------------------------------------------------------------------|
F|------------------------------------------------------------------|
C|------------------------------1-----2-----1---2---1---2-----------|
G|--1-----2-----1---2---1---2---0-0-0-0-0-0-0-0-0-0-0-0-0-0---------|
D|--0-0-0-0-0-0-0-0-0-0-0-0-0-0-------------------------------------|

d|------------------------------------------------------------------|
A|------------------------------------------------------------------|
F|------------------------------------------------------------------|
C|------------------------------------------------------------------|
G|--1-----2-----1---2---1---2---4-----5-----4---5---4---5-----------|
D|--0-0-0-0-0-0-0-0-0-0-0-0-0-0-3-3-3-3-3-3-3-3-3-3-3-3-3-----------|

d|------------------------------------------------------------------|
A|------------------------------------------------------------------|
F|------------------------------------------------------------------|
C|------------------------------1-----2-----1---2---1---2-----------|
G|--1-----2-----1---2---1---2---0-0-0-0-0-0-0-0-0-0-0-0-0-0---------|
D|--0-0-0-0-0-0-0-0-0-0-0-0-0-0-------------------------------------|

d|------------------------------------------------------------------|
A|------------------------------------------------------------------|
F|------------------------------------------------------------------|
C|------------------------------------------------------------------|
G|--1-----2-----1---2---1---2---4-----5-----4---5---4---5-----------|
D|--0-0-0-0-0-0-0-0-0-0-0-0-0-0-3-3-3-3-3-3-3-3-3-3-3-3-3-----------|

d|------------------------------------------------------------------|
A|------------------------------------------------------------------|
F|------------------------------------------------------------------|
C|------------------------------------------------------------------|
G|--1-----2-----1---2---1---2---------------------------------------|
D|--0-0-0-0-0-0-0-0-0-0-0-0-0-0-------------------------------------|

Clean part:
d|------------------------------------------------------------------|
A|------------------------------------------------------------------|
F|------9-------9-------8-------8-------5-------5-------5-------5---|
C|----9---9---9---9---8---8---8---8---5---5---5---5---5---5---5---5-|
G|--7-------7-------6-------6-------3-------3-------3-------3-------|
D|------------------------------------------------------------------|

Outro:

d|------------------------------------------------------------------|
A|------------------------------------------------------------------|
F|------------------------------------------------------------------|
C|--8---7-6-5-4-3-2-------------------------------------------------|
G|--8---7-6-5-4-3-2-------------------------------------------------|
D|--6---5-4-3-2-1-0-------------------------------------------------|

/  slide up
\  slide down
h  hammer-on
p  pull-off
~  vibrato
+  pinch harmonic
x  Mute note
Tap to rate this tab
# A B C D E F G H I J K L M N O P Q R S T U V W X Y Z