Song name
# A B C D E F G H I J K L M N O P Q R S T U V W X Y Z

Cancerslug - Deaths Call tab

Death's Call By Cancerslug
Drop D tuning:DADGBE
Intro
E------------------|
B------------------|
G--------6---9-----|
D-9--6---6---9-----|
A-9--6---4---7-----|
D-9--6-------------|  these are the chords used for the intro
p.m the first two chords and then play the other two without palm muting

Chorus (chords that used for chorus)
E----------------------|
B----------------------|
G----8----9-8-6--8-----|
D-9--8-6--9-8-6--8--9--|
A-9--6-6--7-6-4--6--9--|
D-9----6------------9--|


Outro (chords that are used)
E---------------------------------------|
B---------------------------------------|
G---------------------------------------|
D-9~~~~-9-9-8-6~~-6-6-4-2~-1~/-9~~~~~~--|
A-9~~~~-9-9-8-6~~-6-6-4-2~-1~/-9~~~~~~--|
D-9~~~~-9-9-8-6~~-6-6-4-2~-1~/-9~~~~~~--|



thats all that i have for this tab i just figured it out today whie listening to this 
song,hope you like it.


here is my email if you have any questions tyler.hershberger@yahoo.com
Tap to rate this tab
 
# A B C D E F G H I J K L M N O P Q R S T U V W X Y Z