Song name
# A B C D E F G H I J K L M N O P Q R S T U V W X Y Z

Cancerslug - So Many Dead tab

One of my favourite songs by cancerslug. Pretty easy to play though I saw no tab on here for it.
I am just got to put what chords to play, you can figure out the strumming it is very easy
Tuning: drop C

Intro:
D---------------------|
A---------------------|
F---------------------|
C-11------------------|
G-9----------6-5------|
C------------6-5------|

Verse
D----------------|
A----------------|
F----------------|
C----------------|
G-10---6---3---5-|
C-10---6---3---5-|

The order is easy. just listen to the strumming
Tap to rate this tab
 
# A B C D E F G H I J K L M N O P Q R S T U V W X Y Z