Song name
# A B C D E F G H I J K L M N O P Q R S T U V W X Y Z

Cancerslug - My Black Angel tab

G-----------------------------------------------------|
D-----------------------------------------------------|
A-2---------------------------------------------------|
E-----4----0-----2------------------------------------| x2

G-----------------------------------------------------|
D-----------------------------------------------------|
A--------2---1---------------------2------------------|
E-0--2-----------4----0-------------------------------|

hit notes as much as needed

Careless Ghoul
Robbe Bomans
Tap to rate this tab
# A B C D E F G H I J K L M N O P Q R S T U V W X Y Z