Song name
# A B C D E F G H I J K L M N O P Q R S T U V W X Y Z

Cancerslug - Shapeshift tab

Shapeshift:


C---------------------------------------|
G---------------------------------------|
D#--------------------------------------|
A#--00000---33333---77777-555--8-7------|
F--00000---33333---77777-555--8-7-------|
C--00000---33333---77777-555--8-7-------|

2 times pm, 2 times open, 2 times pm, 2 times open

2nd Part:

C----------------------------------------------------|
G----------------------------------------------------|
D#---------------------------------------------------|
A#--000---88--7-000---88--7-000---88--7---333--555---|
F--000---88--7-000---88--7-000---88--7---333--555----|
C--000---88--7-000---88--7-000---88--7---333--555----|

Play this twice, replay the first part, then play this twice again and hit the top three
strings open and the song is over
Tap to rate this tab
 
# A B C D E F G H I J K L M N O P Q R S T U V W X Y Z