Song name
# A B C D E F G H I J K L M N O P Q R S T U V W X Y Z

Cancerslug - A Lullaby To Help You Die tab

tuning: C-F-A#-D#-G-C

RIFF A



C |--------------------------------------------------|
G |--------------------------------------------------|
D#|--------------------------------------------------|
A#|-------------------9h10---------------------------|
F |-------7h8----------------------7h8---5h6---3h4---|
C |-0-0-0-----0-0-0-0------0-0-0-0-----0-----0-----0-|

PM...... ....... ....... . . .



RIFF B


(last time only.)
C |----------------------------------------------------|----------------------------|
G |----------------------------------------------------|----------------------------|
D#|----------------------------------------------------|--9-------------------------|
A#|-------10/9-----------------------------------------|--9-------------------------|
F |--------8/7---------11/10---------8/7---5/4---4/3---|--7-------------------------|
C |-0-000------0-0-000--9/8 -0-0-000-6/5-0-3/2-0-2/1-0-|----------------------------|
PM. ... . . ... . . ... . . . hold out until vocals begin.



RIFF C

walking down street... ...way in it. ...and it'll be O.K. ... for a little bit.
C |-----------------------|----------------|--------------------|---------------------|
G |-----------------------|----------------|--------------------|---------------------|
D#|--5--------------------|----------------|-------------10-----|-(10)-----12---------|
A#|--5--------------------|----7-----------|-(7)---------10-----|-(10)-----12---------|
F |--3--------------------|----7-----------|-(7)----------8-----|-(8)------10---------|
C |-----------------------|----5-----------|-(5)----------------|---------------------|
(played twice as long
on 1st verse only.)

|..............................strumming throughout.................................|


repeat those chords until the end. just remember that the first chord is played twice as 
long on the first verse only
(the whole "walking down the street, I see a cunt I'd like to meet" part up until "WAY" 
in the "way in it" part.

so the entire structure is:

Riff A x4
Riff B x2
Riff A x2
Riff B x2 with the hold out on last time.
Riff c until the end.
Tap to rate this tab
 
# A B C D E F G H I J K L M N O P Q R S T U V W X Y Z