Song name
# A B C D E F G H I J K L M N O P Q R S T U V W X Y Z

Cancerslug - Nadia tab

riff 1:
|---------------------------------|
|---------------------------------|
|---------------------------------|
|---------------------------------|
|-3-33-33-------------------------|
|---------5-55-55-3-33-33-3-33-33-|

riff 2:
|-----------------------------------------------------------------|
|-----------------------------------------------------------------|
|-----------------------------------------------------------------|
|-----------------------------------------------------------------|
|-3-33-33-3-33-33-----------------5-55-55-5-55-55-----------------|
|-----------------5-55-55-5-55-55-----------------3-33-33-3-33-33-|

riff 3:
|-----------------------------------------------------------------|
|-----------------------------------------------------------------|
|-----------------------------------------------------------------|
|---------------------------------3-33-33-5-55-55-----------------|
|-7-77-77-7-77-77-5-55-55-5-55-55-----------------3-33-33-3-33-33-|
|-

riff 4:                                            ENDING 1        ENDING 2
|-------------------------------------------------|-----------------|----------------|
|-------------------------------------------------|-----------------|----------------|
|-------------------------------------------------|-----------------|----------------|
|---------------------------------3-33-33-5-55-55-|-----------------|----------------|
|-3-33-33-3-33-33-5-55-55-5-55-55-----------------|-3-33-33-3-33-33-|-3333-3333-3----|
|-------------------------------------------------|-----------------|----------------|
Tap to rate this tab
 
# A B C D E F G H I J K L M N O P Q R S T U V W X Y Z