Song name
# A B C D E F G H I J K L M N O P Q R S T U V W X Y Z

Cancerslug - Nora tab

Song:Nora
Album:Battle Hymns 1
Artist:Cancerslug
Year:2004

Intro
D---------------------------------------------------------|
A---------------------------------------------------------|
F---------------------------------------------------------|
C---------------------------------------------------------|
G---------------------------------------------------------|
C-7-77-777--2-22-222-44-22-4x6---7-77-777--2-22-222--4~~~-|

Chorus 1 x2
D--------------------------------|
A--------------------------------|
F--------------------------------|
C-7-77-777--2-22-222--44--22--4X-|
G-7-77-777--2-22-222--44--22--4X-|
C-7-77-777--2-22-222--44--22--4X-|

Verse 1 x2
D----------------------------------------------------------|
A----------------------------------------------------------|
F----------------------------------------------------------|
C-7-77-777--2-22-222--44--22--4-----7-77-777--2-22-222--4X-|
G-7-77-777--2-22-222--44--22--4x6---7-77-777--2-22-222--4X-|
C-7-77-777--2-22-222--44--22--4-----7-77-777--2-22-222--4X-|

*Chorus 2 x2

But On Last Time
Let This Chord Ring Out
D-----------------|
A-----------------|
F-----------------|
C--4~~~----X\~~~~-|
G--4~~~----X\~~~~-|
C--4~~~----X\~~~~-|


Key:
X
X=Immediately Stop
X

X\
X\=Pickslide
X\

~~~=Let Ring
Tap to rate this tab
# A B C D E F G H I J K L M N O P Q R S T U V W X Y Z