Song name
# A B C D E F G H I J K L M N O P Q R S T U V W X Y Z

Cancerslug - My Lady Death tab

Song:Lady Death
Album:
Artist:
Genre:Post-Punk
Year:2004
Tuning:Drop C (C,G,C,F,A,D)

Verse 1 Pt.1 x2
D-------------------------|
A-------------------------|
F-6~~~--3~~~--------------|
C-6~~~--3~~~--6~~~--3~~~--|
G-4~~~--1~~~--6~~~--3~~~--|
C-------------6~~~--3~~~--|

Verse 1 Pt.2 x1
D----------------------------------|
A----------------------------------|
F----------------8~~~--------------|
C----------4~~~--8~~~--6~~~--6-----|
G-1/6-4-3--4~~~--6~~~--6~~~--6x16--|
C----------4~~~--------6~~~--6-----|
                             .

Verse 1 Pt.3 x1
D-----------------------------------------|
A(   x2  )--------------------------------|
F-66-6666--(   x2  )-(   x2  )-(   x2  )--|
C-66-6666---88-8888---66-6666---33-3333---|
G-44-4444---88-8888---66-6666---33-3333---|
C-----------88-8888---66-6666---33-3333---|

Verse 1 Pt.4 x1
D-----------------------------------------|
A(   x2  )--------------------------------|
F-66-6666--(   x2  )-(   x2  )------------|
C-66-6666---88-8888---66-6666---33-3333---|
G-44-4444---88-8888---66-6666---33-3333---|
C-----------88-8888---66-6666---33-3333---|

D-----------|
A-----------|
F-----------|
C-----------|
G-66-44-33--|
C-----------|

Verse 1 Pt.5 x1
D-------------------------------------------------|
A----------(  x2  )-------------------------------|
F(   x2  )--88-888--(   x2  )---------------------|
C-44-4444---88-888---66-6666---33-3333------------|
G-44-4444---66-666---66-6666---33-3333--88-66-44--|
C-44-4444------------66-6666---33-3333------------|

Outro x1
D---------------------------------------|
A----------(   x2  )--------------------|
F(   x2  )--88-8888------------6-5------|
C-44-4444---88-8888---66-6666--6-5-8-6--|
G-44-4444---66-6666---66-6666--4-3-8-6--|
C-44-4444-------------66-6666------8-6--|

Song Order:
*Verse 1 Pt.1
*Verse 1 Pt.2
*Verse 1 Pt.3
*Verse 1 Pt.4
*Verse 1 Pt.5
*Outro x1

Key:
/=Slide Up
~=Let Ring

*Here Is A Link If You Wanna Play Along:
http://www.youtube.com/watch?v=AEEqVBfQgvU

*Don't Forget To Rate And Comment If You
Liked The Tab, And Comment Any Corrections,
I Welcome Corrections.
Tap to rate this tab
# A B C D E F G H I J K L M N O P Q R S T U V W X Y Z