Song name
# A B C D E F G H I J K L M N O P Q R S T U V W X Y Z

Canciones Navidenas - Los Peces En El Rio tab

-------------------------------------------------------------------------------
                             los peces en el rio
-------------------------------------------------------------------------------
Tabbed by:Antonio Mani
E-mail:luisantonio2599@hotmail.com

La canción se repite dos veces

e|-----------------------------------------------------------------------------|
B|-------------------------3-3-3-3---------------------------------------------|
G|-5-5-5-5-4-2-4-2-4-1-------------5-4-5-4-5-4-2-------------------------------|
D|----------------------2------------------------------------------------------|
A|-----------------------------------------------------------------------------|
E|-----------------------------------------------------------------------------|


e|-----------------------------------------------------------------------------|
B|-------------------------3-3-3-3---------------------------------------------|
G|-5-5-5-5-4-2-4-2-4-1-------------5-4-5-4-5-4-2-------------------------------|
D|----------------------2------------------------------------------------------|
A|-----------------------------------------------------------------------------|
E|-----------------------------------------------------------------------------|


e|-----------------------------------------------------------------------------|
B|--------------------3---3--------------3----3--------------------------------|
G|-2-4-5-4-5-4-5-5-5---5----5-4-4--4-5----5----5-4-4-2-1-2-4-5-2-2-------------|
D|-----------------------------------------------------------------------------|
A|-----------------------------------------------------------------------------|
E|-----------------------------------------------------------------------------|


e|-----------------------------------------------------------------------------|
B|--------------3----3-----------3---3-----------------------------------------|
G|-5-5-4-5-5-5----5----5-4--4/5---5---4-4-2-1-2-4-5-2--------------------------|
D|-----------------------------------------------------------------------------|
A|-----------------------------------------------------------------------------|
E|-----------------------------------------------------------------------------| (x2)
Tap to rate this tab
 
# A B C D E F G H I J K L M N O P Q R S T U V W X Y Z