Song name
# A B C D E F G H I J K L M N O P Q R S T U V W X Y Z

Candice Alley - Before You Go tab

Intro
e|-----3----------------1---------------3------------3----------|
b|-----3----------------1---------------3------------3----------|
g|-----3----------------1-----3---------3-----5------3----------|
d|-----3-----5----------1-----3---------3-----5------3-----5----|
a|-----3-----5----------1---------------3------------3-----5----|
e|-----3----------------1---------------3------------3----------|

Verse 1:

e|-----3----------------1---------------3------------3----------|
b|-----3----------------1---------------3------------3----------|
g|-----3----------------1-----3---------3-----5------3----------|  x 4
d|-----3-----5----------1-----3---------3-----5------3-----5----|
a|-----3-----5----------1---------------3------------3-----5----|
e|-----3----------------1---------------3------------3----------|


Pre- Chorus

e|-----3----------------1---------------3------------3----------|
b|-----3----------------1---------------3------------3----------|
g|-----3----------------1-----3---------3-----5------3----------|  x 4
d|-----3-----5----------1-----3---------3-----5------3-----5----|
a|-----3-----5----------1---------------3------------3-----5----|
e|-----3----------------1---------------3------------3----------|


e|-----3----------------1--------------|
b|-----3----------------1--------------|
g|-----3-----5----------1-----3--------|   x 2
d|-----3-----5----------1-----3--------|
a|-----3----------------1--------------|
e|-----3----------------1--------------|


Chorus

e|-----3----------------1---------------1------------3----------|
b|-----3----------------1---------------1------------3----------|
g|-----3----------------1-----3---------1------------3-----5----|  x 4
d|-----3-----5----------1-----3---------1-----3------3-----5----|
a|-----3-----5----------1---------------1-----3------3----------|
e|-----3----------------1---------------1------------3----------|


Intro
e|-----3----------------1---------------3------------3----------|
b|-----3----------------1---------------3------------3----------|
g|-----3----------------1-----3---------3-----5------3----------|
d|-----3-----5----------1-----3---------3-----5------3-----5----|
a|-----3-----5----------1---------------3------------3-----5----|
e|-----3----------------1---------------3------------3----------|


Verse 2

Pre- chorus

chorus

intro

verse 1

chorus

outro

e|-----3----------------1---------------3------------3----------|
b|-----3----------------1---------------3------------3----------|
g|-----3----------------1-----3---------3-----5------3----------|  x 4
d|-----3-----5----------1-----3---------3-----5------3-----5----|
a|-----3-----5----------1---------------3------------3-----5----|
e|-----3----------------1---------------3------------3----------|

enjoy!

love emily
Tap to rate this tab
 
# A B C D E F G H I J K L M N O P Q R S T U V W X Y Z