Song name
# A B C D E F G H I J K L M N O P Q R S T U V W X Y Z

Candid Daydream - Next Year tab

Another one from Ryan Mackie :)

Verse
     
|---0-------0-------0-------0-------0-------0-------0-------0-------0---|
|---5-------0-------0-------0-------9-------0-------0-------0-------0---|
|---6-------6-------6-------9-------8-------6-------1-------3-------6---|
|---6-------7-------9-------9-------9-------7-------2-------4-------7---|
|---4-------7-------9-------7-------6-------7-------2-------4-------7---|
|---0-------5-------7-------0-------0-------5-------0-------2-------5---|

Chorus
|---0-------0-------0-------0--------0---|
|---0-------9-------0-------5--------0---|
|---9-------8-------6-------6--------6---|
|---9-------9-------7-------6--------9---|
|---7-------6-------7-------4--------9---|
|---0-------0-------5-------0--------7---|
Tap to rate this tab
 
# A B C D E F G H I J K L M N O P Q R S T U V W X Y Z