Song name
# A B C D E F G H I J K L M N O P Q R S T U V W X Y Z

Candid Daydream - Everything I Know Acoustic tab

Artist: Candid
Title: Everything I Know (Acoustic)
Tuning: Down 1/2 Step
Tabbed by: Justin Hall

Verse("Take one last...")
         
eb---3(2)3--3--2--------3--3--3--3------------------------------------------------------|
Bb---3---3--3--3--------3--3--3--1------------------------------------------------------|
Gb---0---0--0--2---x3---0--0--0--2------------------------------------------------------|
Db---x---x--0--0--------x--x--0--3------------------------------------------------------|
Ab---2--h3--x--x--------2-h3--x--3------------------------------------------------------|
Eb---x---x--3--2--------x--x--3--1------------------------------------------------------|

Pre Chorus("And you go...")

eb---2--3--3--2-------------------------------------------------------------------------|
Bb---3--3--3--3-------------------------------------------------------------------------|
Gb---0--0--0--2---x3--------------------------------------------------------------------|
Db---x--x--0--0-------------------------------------------------------------------------|
Ab---2--3--x--x-------------------------------------------------------------------------|
Eb---x--x--3--2-------------------------------------------------------------------------|


Chorus("These days are too short, I should know you by now...")


eb---3--0--2--3-------3-2-3-------------------------------------------------------------|
Bb---3--3--3--3-------3-3-3-------------------------------------------------------------|
Gb---0--0--2--0---x3--0-2-0-------------------------------------------------------------|
Db---0--2--0--0-------0-0-2-------------------------------------------------------------|
Ab---2--3--x--2-------2-x-3-------------------------------------------------------------|
Eb---3--x--2--3-------3-2-x-------------------------------------------------------------|


Bridge("...And I guess I never knew what hit me...")

eb---2--3-------2--2--0--------3-2------------------------------------------------------|
Bb---3--3-------3--3--3--------3-3------------------------------------------------------|
Gb---0--0---x4--0--0--0---x3---0-2------------------------------------------------------|
Db---x--x-------2--0--2--------0-0------------------------------------------------------|
Ab---2--3-------x--2--3--------2-x------------------------------------------------------|
Eb---x--x-------x--x--x--------3-2------------------------------------------------------|

Outro("We can't come back...")
eb---3-0-3------------------------------------------------------------------------------|
Bb---3-3-3------------------------------------------------------------------------------|
Gb---0-2-0------------------------------------------------------------------------------|
Db---0-2-2------------------------------------------------------------------------------|
Ab---2-0-3------------------------------------------------------------------------------|
Eb---3-x-x------------------------------------------------------------------------------|


Song Order:
Verse
Pre Chorus
Chorus
Verse
Pre Chorus
Chorus
Bridge
Chorus x3
Outro x2
Tap to rate this tab
 
# A B C D E F G H I J K L M N O P Q R S T U V W X Y Z