Song name
# A B C D E F G H I J K L M N O P Q R S T U V W X Y Z

Candiria - Remove Yourself tab

Help us improve GuitareTab! Take a short survey!
Tuning: Eb Ab Db Gb A# Eb


INTRO (x2)
|-----------------------------	|-----------------------------|
|-----------------------------	|-----------------------------|
|-----------------------------	|-----------------------------|
|-9------------7---7---7------	|9----------7---7---7---------|  Part I
|---9--------9---9---10--9----	|--9------9---9---10--9-------|
|-----7~-0-7---------------7~-	|----7~-0---------------7-5~--|

|-----------------------------	|---------------------------------|
|-----------------------------	|---------------------------------|
|-----------------------------	|---------------------------------|
|-9------------7---7---7------	|-9------------7---7---7----------|  Part II
|---9--------9---9---10--9----	|---9--------9---9---10--9--------|
|-----7~-0-7---------------7~-	|-----7~-0-7---------------7-5-3~-|

VERSE (x4)
|--------------------------------|---------------------------------|
|--------------------------------|---------------------------------|
|9-----------------------------9-|-5-----------------------------5-|
|9--9-----------------------9--9-|-5--5-----------------------5--5-|
|---9--9-x---x-9-x-9---x-9--9----|----5--5-x---x-5-x-5---x-5--5----|
|------7-x---x-7-x-7---x-7-------|-------3-x---x-3-x-3---x-3-------|


PRE-CHORUS (x1)
|x -------------|
|x -------------|
|x -------------|
|x 9~~~----5~~~-|
|x 9~~~----5~~~-|
|x 7~~~----3~~~-|


CHORUS (x2)
|-----------------    |--------------------------------|
|-----------------    |--------------------------------|
|-----------------  X2    |----------------------------|  X2
|-9-9-9-9-9-9-9-9-    |-12-12-12-12-12-12-12-12--------|
|-9-9-9-9-9-9-9-9-    |-12-12-12-12-12-12-12-12--------|
|-7-7-7-7-7-7-7-7-    |-10-10-10-10-10-10-10-10--------|


|-----------------    |-----------------------|
|-----------------    |-----------------------|
|----------------- X2    |--------------------|  X2
|-7-7-7-7-7-7-7-7-    |-5-5-5-5-5-5-5-5-------|
|-7-7-7-7-7-7-7-7-    |-5-5-5-5-5-5-5-5-------|
|-5-5-5-5-5-5-5-5-    |-3-3-3-3-3-3-3-3-------|

CHORUS Guitar 2

|------------19--17--15--14--12-|
|12--14--15--x---x---x---x---x--|
|x---x---x---16--14--12--11--9--|
|9---11--12---------------------|
|-------------------------------|
|-------------------------------|

Solo/Bridge:

|--------------------------|
|--------------------------|
|--------------------------|
|-9~--12~--7~--5~--9~--12~-|
|-9~--12~--7~--5~--9~--12~-|
|-7~--10~--5~--3~--7~--10~-|

|-------------------------------|-------------------------------|
|-------------------------------|-------------------------------|
|-------------------------------|-------------------------------|
|-------------------------x-----|-------------------------x-----|
|-9-9---9-9---9-9---9-9---x-9-9-|-9-9---9-9---9-9---9-9---x-9-9-|
|-7-7---7-7---7-7---7-7---x-7-7-|-5-5---5-5---5-5---5-5---x-5-5-|

|-------------|
|-12~----10~--|
|-11~----9~---|
|-9~-----7~---|
|-------------|
|-------------|

Outro
|-----------------------------	|----------------------------------|
|-----------------------------	|----------------------------------|
|-----------------------------	|----------------------------------|
|-9------------7---7---7------	|9----------7-x-9-9---12-12--7~--5~|
|---9--------9---9---10--9----	|--9------9---x-9-9---12-12--7~--5~|
|-----7~-0-7---------------7~-	|----7~-0-----x-7-7---10-10--5~--3~|


Intro
Verse
Prechorus
Chorus

Intro Part II
Verse
Prechorus
Chorus

Solo
Bridge
Prechorus + Guitar2 Chorus
Chorus
Outro

http://www.myspace.com/candiria
Related for Remove Yourself tab