Song name
# A B C D E F G H I J K L M N O P Q R S T U V W X Y Z

Candlebox - Its All Right tab

----------------------------------------------------------------------------
			     ITS ALRIGHT - Candlebox
----------------------------------------------------------------------------
Tabbed by: Chris Mckeown
Email: christoph_mckeown@hotmail.com

Tuning: standard

0:01
e|----3--------------------------------------|
B|------3------------3-----------------------|
G|--2-----2-------------0-0------------------|
D|--3-------2----2p0----2-2--0h2-------------|
A|----------------------3-3-------3-2-0------|
E|-------------------------------------------|

e|----3--------------------------------------|
B|------3------------3-----------------------|
G|--2-----2-------------0-0------------------|
D|--3-------2----2p0----2-2---0-0------------|
A|----------------------3-3---2-2------------|
E|---------------------------------5/13------|

0:14
e|-----3---3------3---3--------3---3----------0-------------|
B|-----3---3------3---3--------3---3----3--------3----------|
G|--2----2---2--0---0---0---2----2---2--0-----------0-------|
D|--3-----------2-----------3-----------2--------------2----|
A|----------------------------------------------------------|
E|----------------------------------------------------------|

e|-----3---3------3---3--------3---3---------------0---------|
B|-----3---3------3---3--------3---3----3------------3-------|
G|--2----2---2--0---0---0---2----2---2--0--------------------|
D|--3-----------2-----------3-----------2-----2-0------------|
A|-----------------------------------------------------------|
E|-----------------------------------------------------------|

0:38
3x
e|----3--------------------------------------|
B|------3------------3-----------------------|
G|--2-----2-------------0-0------------------|
D|--3-------2----2p0----2-2--0h2-------------|
A|----------------------3-3-------3-2-0------|
E|-------------------------------------------|

e|----3--------------------------------------|
B|------3------------3-----------------------|
G|--2-----2-------------0-0------------------|
D|--3-------2----2p0----2-2---0-0------------|
A|----------------------3-3---2-2------------|
E|---------------------------------5/13------|

1:04
e|-------------------------------------------------------------------------|
B|-------------------------------------------------------------------------|
G|------0-------------7-7b(9)------------------------10--------------------|
D|--0h2---------------------------12-10----10-12b(14)---(14)12p10----------|
A|--------------------------------------12------------------------12-12-10-|
E|-------------------------------------------------------------------------|

e|------------------------------------------------------------------|
B|------------------------------------------------------------------|
G|-7b(9)(10)--------------------------------------------------------|
D|--------------12b(14)12p10----10-12-12b(14)-----------------------|
A|---------------------------12-------------------------------------|
E|------------------------------------------------------------------|

e|-------------------------------------------------------------------------|
B|-------------------------------------------------------------------------|
G|--------------------7-7b(9)------------------------10--------------------|
D|--------------------------------12-10----10-12b(14)---(14)12p10----------|
A|--------------------------------------12------------------------12-12-10-|
E|-------------------------------------------------------------------------|

e|------------------------------------------------------------------|
B|------------------------------------------------------------------|
G|-7b(9)(10)--------------------------------------------------------|
D|--------------12b(14)12p10----10-12-12b(14)-----------------------|
A|---------------------------12-------------------------------------|
E|------------------------------------------------------------------|

1:33
e|-----3---3------3---3--------3---3----------0-------------|
B|-----3---3------3---3--------3---3----3--------3----------|
G|--2----2---2--0---0---0---2----2---2--0-----------0-------|
D|--3-----------2-----------3-----------2--------------2----|
A|----------------------------------------------------------|
E|----------------------------------------------------------|

e|-----3---3------3---3--------3---3---------------0------|
B|-----3---3------3---3--------3---3----3------------3----|
G|--2----2---2--0---0---0---2----2---2--0-----------------|
D|--3-----------2-----------3-----------2-----2-0---------|
A|--------------------------------------------------------|
E|--------------------------------------------------------|

1:58
3x
e|----3--------------------------------------|
B|------3------------3-----------------------|
G|--2-----2-------------0-0------------------|
D|--3-------2----2p0----2-2--0h2-------------|
A|----------------------3-3-------3-2-0------|
E|-------------------------------------------|

e|----3--------------------------------------|
B|------3------------3-----------------------|
G|--2-----2-------------0-0------------------|
D|--3-------2----2p0----2-2---0-0------------|
A|----------------------3-3---2-2------------|
E|---------------------------------5/13------|

2:24
e|--------------------------------------------------------|
B|--------------------------------------------------------|
G|--------------------7-7b(9)(10)-------------------------|
D|--5/7-7-5-----------------------12b(14)-----------------|
A|----------------------------------------12-------0------|
E|-------------------------------------------12-10--------|

e|------------------------------------------------------------------|
B|------------------------------------------------------------------|
G|-7b(9)(10)--------------------------------------------------------|
D|------------------------------------------------------------------|
A|------------------------------------------------------------------|
E|------------------------------------------------------------------|

e|--------------------------------------------|
B|--------------------------------------------|
G|-----7-7b(9)(10)----------------------------|
D|--------------------------------------------|
A|--------------------------------------------|
E|--------------------------------------------|

e|-------------------------------------|
B|-------------------------------------|
G|-7b(9)(10)---------------------------|
D|-------------------------------------|
A|-------------------------------------|
E|-------------------------------------|

2:53
e|----3--------------------------------------|
B|------3------------3-----------------------|
G|--2-----2-------------0-0------------------|
D|--3-------2----2p0----2-2--0h2-------------|
A|----------------------3-3-------3-2-0------|
E|-------------------------------------------|

e|----3--------------------------------------|
B|------3------------3-----------------------|
G|--2-----2-------------0--------------------|
D|--3-------2----2p0----2--0h2---------------|
A|----------------------3--------------------|
E|-------------------------------------------|

3:05
Head banging bit
e|------------------------0-0--------------------|
B|------------------------5-5--------------------|
G|------------------------4-4--------------------|
D|------------------------0-0--------------------|
A|--9-9---8-8--7-7--2-2--------------------------|
E|--7-7---6-6--5-5--0-0--------------------------|

3:42
e|--7---7---7---7---7---7-------------------10b(12)------------|
B|----8---8---8---8---8---8-12b(15)------12--------------------|
G|-------------------------------------------------------------|
D|-------------------------------------------------------------|
A|-------------------------------------------------------------|
E|-------------------------------------------------------------|

e|------------------------------------------------------|
B|------------------------5-5---------------------------|
G|------------------------4-4---------------------------|
D|------------------------0-0---------------------------|
A|--------------------2-2-------------------------------|
E|--/8p7-/7p6-/6p5----0-0-------------------------------|

4:07
(finger pick randomly)
E                             D
In all she's revealed I found I could always see
E                        D
How her ways could flow and run over me
E
And I found this reason to learn
                 D
And i found this reason to decide
E
As many days come and many days go
     D
I'll never know why
F
And it's alright
E
it's alright

4:38
e|------------------------------------------------------------------|
B|------------------------------------------------------------------|
G|-7b(9)(10)--------------------------------------------------------|
D|---------------12(14)12-------------------------------------------|
A|------------------------12-10-------------------------------------|
E|------------------------------12--12-10-8--8-5-3------------------|

e|------------------------------------------------------------------|
B|------------------------------------------------------------------|
G|-7b(9)(10)--------------------------------------------------------|
D|------------------------------------------------------------------|
A|------------------------------------------------------------------|
E|------------------------------------------------------------------|

e|------------------------------------------------------------------|
B|------------------------------------------------------------------|
G|-7b(9)(10)--------------------------------------------------------|
D|-------------10h12p10h12b(14)-12-10-------------------------------|
A|------------------------------------12--12-10---------------------|
E|----------------------------------------------12------------------|

e|------------------------------------------------------------------|
B|------------------------------------------------------------------|
G|-7b(9)(10)--------------------------------------------------------|
D|------------------------------------------------------------------|
A|------------------------------------------------------------------|
E|------------------------------------------------------------------|

5:04

e|----3--------------------------------------|
B|------3------------3-----------------------|
G|--2-----2-------------0-0------------------|
D|--3-------2----2p0----2-2--0h2-------------|
A|----------------------3-3-------3-2-0------|
E|-------------------------------------------|

e|----3--------------------------------------|
B|------3------------3-----------------------|
G|--2-----2-------------0-----0--------------|
D|--3-------2----2p0----2-----2--------------|
A|----------------------3-----3--------------|
E|-------------------------------------------|

it is a favourite of mine, Enjoy!

| /  slide up
| \  slide down
| h  hammer-on
| p  pull-off
| ~  vibrato
| +  harmonic
| x  Mute note
============================================================================
Tap to rate this tab
 
# A B C D E F G H I J K L M N O P Q R S T U V W X Y Z