Song name
# A B C D E F G H I J K L M N O P Q R S T U V W X Y Z

Candlebox - No Sense tab

Candlebox - 'No Sense'
From the debut album 'Candlebox'
Standard Tuning
tabbed by jjhand

This song is a very bluesy number, and Peter Klett really throws down with
a ballsy solo! Listen to this one and give me some feedback if you will?
Thanks for looking.

Intro - Clean, use thumb on chords as needed
   Dm7            Cmaj7
e|-----------------------7----------|-----------------------7--------|
B|---------------------------8------|---------------------------8----|
G|---------10-----------------------|---------10---------------------|
D|-----------10----------------9----|-----------10-------------------|
A|-----12------12-----10---------10-|-----12------12-----10----------|
E|-10-------------8-----------------|-10-------------8---------------|


e|-----------------------7-------|--------------------8---7--------|
B|---------------------------8---|----------------------------8----|
G|---------10--------------------|---------10----------------------|
D|-----------10------------------|-----------10--------------------|
A|-----12------12-----10---------|-----12------12------------------|
E|-10-------------8--------------|-10-------------8----------------|


Verse Riff (Clean, Let notes ring) -

   D7              Cmaj7/G          First Ending
e|-----------------------------|   -----------------------------------|
B|--------------------12----12-|   --------------------13--12---------|
G|-----10------10-----12----12-|   -----10------10-------------12\----|
D|-----10------10--------------|   -----10------10--------------------|
A|-12------12------10----------|   -12------12------10----------------|
E|-----------------------------|   -----------------------------------|
 play 3x


2nd Ending
e|----------------------------|
B|----------------12~~~~~~\---|
G|-----10-----12--12~~~~~~\---|
D|-----10-----12--12~~~~~~\---|
A|-12------12-----------------|
E|----------------------------|


CHORUS - DISTORTION
                   C7                          Fmaj7
e|---------------------------|---------------------0------|
B|---------------------------|---------------------1------|
G|-----------------3---------|---------------------2------|
D|-----3---3---5---5---------|-----3-----3/5--------------|
A|-3h5---5-----3---3---------|-3h5----5--------3----------|
E|---------------------------|-----------------1----------|

                   C7                          F5
e|---------------------------|---------------------------|
B|---------------------------|---------------------------|
G|-----------------3---------|---------------------------|
D|-----3---3---5---5---------|-----3-----3/5---3---------|
A|-3h5---5-----3---3---------|-3h5----5--------3---------|
E|---------------------------|-----------------1---------|

Play Verse Again

Play Chorus Again

Solo
e|-----------------------|----------------------------10-12-13-|
B|-13-------10-----------|---------------------10-12-----------|
G|---------------12-10~--|-------12~---10--9-------------------|
D|-----------------------|-12-10-------------------------------|
A|-----------------------|-------------------------------------|
E|-----------------------|-------------------------------------|

e|-12-10--10--12-12h13p12p10--10--13-12p10--10---------------------|
B|------13------------------13------------13----13-12-10h12p10--10-|
G|------------------------------------------------------------12---|
D|-----------------------------------------------------------------|
A|-----------------------------------------------------------------|
E|-----------------------------------------------------------------|

e|----------------------------10------13-15~--|
B|-----------------------10-13--13/15---------|
G|-12p10--10~-------12b14---------------------|
D|------12-----12p10--------------------------|
A|--------------------------------------------|
E|--------------------------------------------|

e|-12h13p12-10-12--10h12p10-10-13-12-10--10------------------------------------|
B|-------------------------------------13--13-11-10h11p10--10------------------|
G|-------------------------------------------------------12--12-10-9h10p9------|
D|-----------------------------------------------------------------------12-10-|
A|-----------------------------------------------------------------------------|
E|-----------------------------------------------------------------------------|

e|---------------------------10-12h13p12p10-12--10--10---------------------|
B|---------------10h11p10--13---------------------13--13-11~-10-11---------|
G|-9h10p9-9h10-12--------12---------------------------------------12b14r12-|
D|-------------------------------------------------------------------------|
A|-------------------------------------------------------------------------|
E|-------------------------------------------------------------------------|

e|-----------------------------------------------10------|
B|----------------------------------10~-----13b15--13-10-|
G|-(12)-10h12p10-9b10~-10-9--9-10-12---------------------|
D|-------------------------12----------------------------|
A|-------------------------------------------------------|
E|-------------------------------------------------------|

e|----------------------------------------|-------------------------|
B|---------15------15~--------------------|-3------------------3~~~-|
G|-12b14--------12b14~--------b14r12------|-3---------5b7--5gb7-----|
D|-----------------------------------12\--|------5p3----------------|
A|----------------------------------------|-------------------------|
E|----------------------------------------|-------------------------|

e|-----------15--18b20--18b20-15-15------15--------------------|
B|-18b20-------15------------------18b20---18p15---------------|
G|----------------------------------------------17b19--17p15---|
D|----------------------------------------------------------17-|
A|-------------------------------------------------------------|
E|-------------------------------------------------------------|

E|----------18b21--18b20-15--15------15--18p15--15----------------------------------|
B|-------------------------15--18b20---15-----18--18p15-18-----------------------15-|
G|-15~----------------------------------------------------17b19r17p15-17b19~-17~-15-|
D|-------17-------------------------------------------------------------------------|
A|----------------------------------------------------------------------------------|
E|----------------------------------------------------------------------------------|

e|-----18b20--20b22~--b22-b22-b22~--|-18b20r18p15--15h17p15--15--------------------------------|
B|(15)------------------------------|------------18--------18--18p16p15--15-----15-------------|
G|(15)------------------------------|----------------------------------17--17b19--17p15--15-15~|
D|----------------------------------|--------------------------------------------------17------|
A|----------------------------------|----------------------------------------------------------|
E|----------------------------------|----------------------------------------------------------|

e|----------------------------------------------------------------|------------------------|
B|-3--------------------3-6---3--*5b6r5-*3--*3-*3~~---------------|------------------------|
G|-3---*5b7r5-5p3h5-*5b7----5-------------*5--------3---*3~-----3-|-5gb7~~~~---------------|
D|----------------------------------------------------5-------5---|------------------------|
A|----------------------------------------------------------------|------------------------|
E|----------------------------------------------------------------|------------------------|


Play Verse Riff again

Play Chorus Repeatedly and fade. Chorus will start to arpeggiate slightly towards the end
(pluck notes consecutively instead of a strumming rhythm).


key:

| b  bend string
| r  release bend
|gb  gradual bend (slowly bend upward for suspense)
| /  slide up
| \  slide down
| h  hammer-on
| p  pull-off
| ~  vibrato
| *  pinch harmonics
| x  Mute note
Tap to rate this tab
# A B C D E F G H I J K L M N O P Q R S T U V W X Y Z