Song name
# A B C D E F G H I J K L M N O P Q R S T U V W X Y Z

Candlemass - Hammer Of Doom tab

---------------------------------------------------------------------------------
                                               -=[Hammer Of Doom - Candlemass]=-
---------------------------------------------------------------------------------
Song: Hammer Of Doom
Band: Candlemass
Album: Death, Magic, Doom
Tabbed by: TrollFaceJesus
E-mail: trollfacejesus@gmail.com

Tuning: C# [C#, F#, B, E, G#, c#]

Hey everyone, this is my tab for this song, and I think it sounds pretty accurate. 
I'm not an uber guitar player, so I didn't tab the solo (I offer you my sincere 
apologies), but all of the rhythm parts should be right, or very close. The other 
tab on this site for this song had some of the parts right, but I believe it was in 
the wrong tuning, and some of the sections were missing. If you have any 
questions or comments, I would love to hear them! :D


Riff 1 (Starts at 0:00)
|-------------------------------|
|-------------------------------|
|-------------------------------| x2
|-----------4br-----------/5-4--|
|-------------------------------|
|-4br--3-2------4br--3-2--------|


Riff 2 (Starts at 0:23)
|--------------------------------------------------------|
|--------------------------------------------------------|
|--------------------------------------------------------| x3
|----7------8------7-------------7------8------7---------|
|-5-------------5-------------5-------------5-----1---4--|
|--------6-------------6--4----------6-------------------|


Riff 1 x2 (Starts at 1:40)
Riff 2 x3 (Starts at 2:04)


Riff 3 (Starts at 3:23)
|---------------------------------|
|---------------------------------|
|---------------------------------| x6
|-------9-10\-----------9-10\-----|
|-----7---------------7-----------|
|-0-7---------6---0-7---------1---|


|---|
|---|
|---| x1 (Hold this chord at 3:58)
|-2-|
|-2-|
|-0-|


Riff 4 (Gradually comes in at about 4:00-ish)
|----------------------------------------------|
|----------------------------------------------|
|----------------------------------------------| x Many, many times (this plays
|----------------------------------------------|   (under the solo too)
|------------------------------8p7----10p8p7---|
|-000-000--666-666--000-000--------0-----------|
  ... ...           ... ...


Riff 5 (Starts at 4:54)
|--------------------------|
|--------------------------|
|--------------------------| x4
|-4--4/5-5--5/7-7--7/8-8---|
|-4--4/5-5--5/7-7--7/8-8---|
|-2--2/3-3--3/5-5--5/6-6---|


Play "Riff 3" until the end of the song starting at 5:08.


And that's just about it! (Aside from the solo, of course.)


I hope you guys have found this tab helpful! If you have any comments,
questions, or mistakes to point out, please feel free to do so.


************************************

| /   slide up
| \   slide down
| h   hammer-on
| p   pull-off
| ~   vibrato
| +   harmonic
| x   Mute note
| b   Bend
| pb  Pre-bend
| br  Bend release
| pbr Pre-bend release
| brb Bend release bend

************************************
Tap to rate this tab
# A B C D E F G H I J K L M N O P Q R S T U V W X Y Z