Song name
# A B C D E F G H I J K L M N O P Q R S T U V W X Y Z

Candlemass - Clouds Of Dementia tab

-------------------------------------------------------------------------------
                            -=[Clouds of Dementia - Candlemass]=-
-------------------------------------------------------------------------------
Song: Clouds of Dementia
Band: Candlemass
Album: Death, Magic, Doom
Tabbed by: TrollFaceJesus
E-mail: trollfacejesus@gmail.com


Hey everyone, this is my tab for this song, and it all seems pretty close to me. 
I tabbed out all of the rhythm parts, but didn't tab out the solo. Hopefully 
everything here is accurate, and that you guys find it helpful. If you have any 
comments, questions, or mistakes to point out, please feel free to leave a 
message here, or send me an email! :D


Tuning: C#

Riff 1 (Starts at 0:00)
|----------------------------------------------|
|----------------------------------------------|
|----------------------------------------------| x4
|---------------------3---------------------3--|
|----------3--3-2--0--3-----------3--3-2--2----|
|--2--0h2-------------1---2--0h2---------------|


Riff 2
|-------------------------------------------------|
|-------------------------------------------------|
|-------------------------------------------------| x2
|------------------------------------------6---4--|
|--0-----1---0--0------1---0--0-----1---0--6---4--|
|------1------------1-------------1--------4---2--|


Riff 1 x 2


Riff 3
|--------------------------------------------------------|
|--------------------------------------------------------|
|--------------------------------------------------------| x4
|--2--------------------------2--------------------------|
|--2---------2-1--------------2---------2-1-2-4-2-1h2p1--|
|--0--2--3------3-2-3-2h3p2---0--2--3--------------------|


Riff 4 (Guitar 1)
|-------------------------------------------------|
|-------------------------------------------------|
|-------------------------------------------------| x2
|-----0----------------------0-------------5-4-5--|
|--2----2-----------------2----2------------------|
|---------3---3-2---2-1----------3---3-2----------|

Riff 4 (Guitar 2)
|---------------------------------------------------|
|---------------------------------------------------|
|-----7------------------------7--------------------| x2
|--9----9-9---9-8---8-7---7-9----9-9---9-8---5-4-5--|
|---------------------------------------------------|
|---------------------------------------------------|


Riff 5
|-----------------------------|
|-----------------------------|
|-----------------------------| x1
|--8---8---8-----8---8---8----|
|----7---7---7-----7---7---7--|
|-----------------------------|


Riff 6
|------------------|
|------------------|
|--7--------7------| x1
|--7---8----7---8--|
|--5---8----5---8--|
|------6--------6--|


Riff 5 x 1

Riff 6 x 1


Riff 7
|-----------------------------|
|-----------------------------|
|-----------------------------| x1
|-----------------------------|
|-----------------------------|
|--6-0-6-0-6-0---6-0-6-0-6-0--|


Riff 6 x 1

Riff 7 x 1

Riff 6 x 1


Riff 8
|-----------------------------|
|-----------------------------|
|-----------------------------| x1
|-----------------------------|
|--5---5---5-----5---5---5----|
|----4---4---4-----4---4---4--|


Riff 9
|----------------------|
|----------------------|
|--11---------11-------| x1
|--11---10----11---10--|
|--9----10----9----10--|
|-------8----------8---|


Riff 8 x 1

Riff 9 x 1


Riff 10
|---------------------------------|
|---------------------------------|
|---------------------------------| x2
|------------------------------3--|
|------3---2-----------3---2------|
|--2-----------1---2--------------|


Riff 1 x 2

Then play Riff 3 until the end.


And that's just about it!


************************************

| /   slide up
| \   slide down
| h   hammer-on
| p   pull-off
| ~   vibrato
| +   harmonic
| x   Mute note
| b   Bend
| pb  Pre-bend
| br  Bend release
| pbr Pre-bend release
| brb Bend release bend

************************************
Tap to rate this tab
# A B C D E F G H I J K L M N O P Q R S T U V W X Y Z