Song name
# A B C D E F G H I J K L M N O P Q R S T U V W X Y Z

Candlemass - Bewitched tab

this tab is 100% correct! however im not the best at writing tabs out lol
/ slide
~



intro
|---------------------------------------------------------------------|
|---------------------------------------------------------------------|
|---------------------------------------------------------------------|
|---------------------------------------------------------------------|
|-5/7--7--6-3--2---------5/7--7--8--7--10-----------------------------|
|-3/5--5--4-1--0---------3/5--5--6--5--8------------------------------|x4

|---------------------------------------------------------------------|
|---------------------------------------------------------------------|
|---------------------------------------------------------------------|
|---------------------------------------------------------------------|
|-2-----------3-2-2---------------------------------------------------|
|-0---3/6--5--1-0-0-3/6-5-6-8-----------------------------------------|x2

                    EVERYTHING ABOVE IS DONE TWICE
Then...

|---------------------------------------------------------------------|
|---------------------------------------------------------------------|
|---------------------------------------------------------------------|
|---------------------------------------------------------------------|
|-5/7--7--6-3--2---------5/7--7--8--7--10-----------------------------|
|-3/5--5--4-1--0---------3/5--5--6--5--8------------------------------|x4

|---------------------------------------------------------------------|
|---------------------------------------------------------------------|
|---------------------------------------------------------------------|
|---------------------------------------------------------------------|
|---4~---5-4-2-4-5---5/9--8--2-4----2-2-2-2---------------------------|
|--------3-2-0-2-3---3/7--6--3-2----0-0-0-0---------------------------|


|---------------------------------------------------------------------|
|---------------------------------------------------------------------|
|---------------------------------------------------------------------|
|---------------------------------------------------------------------|
|-4-5--9-8--5---2-1-------4~------------------------------------------|
|-2-3--7-6--3-------3-2-----------------------------------------------|

YOU   ARE  BEWITCHED!



|---------------------------------------------------------------------|
|---------------------------------------------------------------------|
|---------------------------------------------------------------------|
|---------------------------------------------------------------------|
|--------5-4-2-4-5---5/9--8--2-4----2-2-2-2---------------------------|
|--------3-2-0-2-3---3/7--6--3-2----0-0-0-0---------------------------|

|---------------------------------------------------------------------|
|---------------------------------------------------------------------|
|---------------------------------------------------------------------|
|---------------------------------------------------------------------|
|-4-5--9-8--5---2-1---------------------------------------------------|
|-2-3--7-6--3-------3-------------------------------------------------|


THOSE ARE THE MAIN RIFFS. 

AT ABOUT 3:OO IN IT GOES...

|---------------------------------------------------------------------|
|---------------------------------------------------------------------|
|---------------------------------------------------------------------|
|---------------------------------------------------------------------|
|-2-4-5-4-5-7-8-7-5-4-3----------2-4-5-4-5-7-8-7-5--------------------|
|-0-2-3-2-3-5-6-5-3-2-1---X3-----0-2-3-2-3-5-6-5-3........------------|

|---------------------------------------------------------------------|
|---------------------------------------------------------------------|
|---------------------------------------------------------------------|
|---------------------------------------------------------------------|
|-4-4-4-4-3-3-3-3-4-4-4-4-3-3-3-3-7-7-7-7-6-6-6-6-7-7-7-7-6-6-6-6-----|
|-2-2-2-2-1-1-1-1-2-2-2-2-1-1-1-1-5-5-5-5-4-4-4-4-5-5-5-5-4-4-4-4-----|X4
  palm mute >>>>>>                DONT HAVE SOLO TABBED YET

|---------------------------------------------------------------------|
|---------------------------------------------------------------------|
|---------------------------------------------------------------------|
|---------------------------------------------------------------------|
|-2-------3-----5----2------------------------------------------------|
|-0-------1-----3----0------------------------------------------------|Xw/e

then it basically starts from the begining n all the riffs are right there^

Tap to rate this tab
# A B C D E F G H I J K L M N O P Q R S T U V W X Y Z