Guitaretab - guitar tabs
Song name
# A B C D E F G H I J K L M N O P Q R S T U V W X Y Z

Candlemass - Bells Of Acheron tab

------------------------------------------------------------
			     Bells of Acheron - Candlemass
-------------------------------------------------------------------------------
Tabbed by:ariel chapa
Email:x-x_xsoad_x-x@hotmail.com

Tuning:standard


Riff A
e|---------------------------------------------------------------------------|
B|---------------------------------------------------------------------------|
G|---------------------------------------------------------------------------|
D|--2--------------2--------------2--------------3---------------------------|
A|--2----3-2-------2----3-2-------2----3-2-------1---------------------------|
E|--0----------3-2-0----------3-2-0----------3-2-----------------------------|

Riff B
e|---------------------------------------------------------------------------|
B|---------------------------------------------------------------------------|
G|---------------------------------------------------------------------------|
D|---------------------------------------------------------------------------|
A|--7-5-7--5-7-5-7--5-7-8----------------------------------------------------|
E|--5-3-5--3-5-3-5--3-5-6----------------------------------------------------|
[ Tab from: http://www.guitaretab.com/c/candlemass/70067.html ]
Riff c
e|---------------------------------------------------------------------------|
B|---------------------------------------------------------------------------|
G|-------------------------------------4------5------4------5----------------|
D|-------------------------------------4------5------4------5----------------|
A|-------------------------------------2------3------2------3----------------|
E|-2-2-2-2--3-3-3-3--2-2-2-2--3-3-3-3----------------------------------------|

Main Riff
e|---------------------------------------------------------------------------------------|
B|---------------------------------------------------------------------------------------|
G|---------------------------------------------------------------------------------------|
D|--4----5-7--5--4-------4---------------------------------------------------------------|
A|--2----3-5--3--2-5-4---2-5-4-----------------------------------------------------------|
E|-----------------3-2-----3-2-----------------------------------------------------------|

Riff D(pre-solo)
e|------------------------------|
B|------------------------------|
G|------------------------------|
D|------------------------------|
A|--222333555333777888777555----|
E|--------------------------00--|
  pm..........................

Riff E(after solo)
e|---------------------------------|
B|---------------------------------|
G|---------------------------------|
D|---------------------------------|
A|--------3-2-----2-1-----1-0------|
E|--2-3-5-----3-2-----3-2-----3-2--|

| /  slide up
| \  slide down
| h  hammer-on
| p  pull-off
| ~  vibrato
| +  harmonic
| x  Mute note
===============================================================================
Related for Bells Of Acheron tab
×
Bells Of Acheron