Song name
# A B C D E F G H I J K L M N O P Q R S T U V W X Y Z

Candlemass - Under The Oak tab

-------------------------------------------------------------------------------
			     Under the Oak - Candlemass
-------------------------------------------------------------------------------
Tabbed by: Ariel Chapa

A great song by Candlemass. My favorite... enjoy.

Intro/main riff
e|----------------------------------------------------------------|
B|----------------------------------------------------------------|
G|----------------------------------------------------------------|
D|----------------------------------------------------------------|
A|--------5-----3-----5-----7/8---------5-----3-----5-----8\7-----|
E|--0-0-0-3-0-0-1-0-0-3-0-0-5/6---0-0-0-3-0-0-1-0-0-3-0-0-6\5-----|

Verse
e|---------------------------------------------------------------------|
B|---------------------------------------------------------------------|
G|---------------------------------------------------------------------|
D|---------------------------------------------------------------------|
A|-----------------------------------------------2---------------------|
E|-0-2-3--2--0-2-3--2--0-2-3--2--0-2-3--2--0-2-3-----------------------|

Clean Slow Part
e|--------------------------------------------------------------------------|
B|--------------------------------------------------------------------------|
G|--------------------------------------------------------------------------|
D|------2--4--5--4--2-------------------------------------------------------|
A|----2---------------2-----------------------------------------------------|
E|--0-----------------------------------------------------------------------|

Riff under solo
e|--------------------------------------------|
B|--------------------------------------------|
G|--------------------------------------------|
D|--------------------------------------------|
A|--------5-------7/8---------5-------8\7-----|
E|--0-0-0-3-0-0-0-5/6---0-0-0-3-0-0-0-6\5-----|
Tap to rate this tab
# A B C D E F G H I J K L M N O P Q R S T U V W X Y Z