Song name
# A B C D E F G H I J K L M N O P Q R S T U V W X Y Z

Candy 66 - Solo tab

-------------------------------------------------------------------------------
			     Solo - Candy66
-------------------------------------------------------------------------------
Tabbed by: Andrew2xtreme
Email: andrew2xtreme@diamondbacks.net

Tuning:Standard (E-A-D-G-B-E)or Drop C(D-A-F-C-G-C)

"Note"
I normally play it in standard tuning but it sounds better on Drop C

Intro/Chorus
e|---------------------------------------------|
B|---------------------------------------------|
G|---------------------------------------------|
D|---1-1-1--1-1\8-8-8\9-9-9--------------------|
A|---1-1-1--1-1\8-8-8\9-9-9--------------------|
E|---1-1-1--1-1\8-8-8\9-9-9--------------------|

Verse
e|---------------------------------------------|
B|---------------------------------------------|
G|---------------------------------------------|
D|---------------------------------------------|
A|---------------------------------------------|
E|-9-9-8--9-9-8--9-9-8-------------------------|
   Pm.   Pm..    Pm.  
e|---------------------------------------------|
B|---------------------------------------------|
G|---11..--------------------------------------|
D|----------------9^----9^---------------------|
A|-9..-----------------------------------------|
E|-------------9^-----------9^-----------------|

Chorus
e|---------------------------------------------|
B|---------------------------------------------|
G|---------------------------------------------|
D|---1-1-1--1-1\8-8-8\9-9-9--------------------|
A|---1-1-1--1-1\8-8-8\9-9-9--------------------|
E|---1-1-1--1-1\8-8-8\9-9-9--------------------|

Interlude
e|---------------------------------------------|
B|---------------------------------------------|
G|---------------------------------------------|
D|-1-0-0--1-0-0--1-0-0--1-0-0--3-3-3-3---------|
A|-1-0-0--1-0-0--1-0-0--1-0-0--3-3-3-3---------|
E|-1-0-0--1-0-0--1-0-0--1-0-0--3-3-3-3---------|

e|---------------------------------------------|
B|---------------------------------------------|
G|---------------------------------------------|
D|---1-1-1--1-1\8-8-8\9-9-9---1.---------------|
A|---1-1-1--1-1\8-8-8\9-9-9---1.---------------|
E|---1-1-1--1-1\8-8-8\9-9-9---1.---------------|

e|---------------------------------------------|
B|---------------------------------------------|
G|---------------------------------------------|
D|---------------------------------------------|
A|---------------------------------------------|
E|-9-9-8--9-9-8--9-9-8-------------------------|
   Pm.   Pm..    Pm.  
Ending chorus

e|---------------------------------------------|
B|---------------------------------------------|
G|---------------------------------------------|
D|---1-1-1--1-1\8-8-8\9-9-9---1.---------------|
A|---1-1-1--1-1\8-8-8\9-9-9---1.---------------|
E|---1-1-1--1-1\8-8-8\9-9-9---1.---------------|


Song Structure:
Intro
Verse
Chorus
verse
Chorus
Interlude
Chorus


| /  slide up
| \  slide down
| h  hammer-on
| p  pull-off
| ~  vibrato
| +  harmonic
| x  Mute note

http://www.candy66.com/
=============================================================================

Tap to rate this tab
# A B C D E F G H I J K L M N O P Q R S T U V W X Y Z