Song name
# A B C D E F G H I J K L M N O P Q R S T U V W X Y Z

Candy Claws - Snow Face chords

Highlighted       Show chord diagrams
official website: http://candyclawsfuture.tumblr.com/

intro: G
G, Em, Am, D

------------------------|------------------------|
------------------------|------------------------|
------------------------|------------------------|
-------------2----------|------------------------|
------2---5------5---2--|--0---2---3--5---2---0--|
--3---------------------|------------------------|



   
------------------------|------------------------|-------------------|
------------------------|------------------------|-------------------|
------------------------|------------------------|--4----------------|
-------------2----------|-------------4---7------|-------------------|
------2---5------5---2--|--0---2---5----------5--|-------------------|
--3---------------------|------------------------|-------------------|



G       Em
Sun is falling
Am            D
Clouds are on the ground
G            Em
Just tell me something
  Am          D
I see Mireen around around

G, Em, Am, D

G         Em
To hold it closer
Am           D
To hide from dinosaurs
G         Em
In snow I found her
Am           D
In snow I'll search once more

G, Em, Am, 

D
  It's growing warmer now
G                     Em
  Turns around around
Am                 Bm                 C
Forever won't you be floating next to me
D
Snow face believe

G, Em, Am, D (and during the solo)

Sun is falling
Clouds are on the ground
The snow around me
I hear the ------

G, Em, Am, 
D
  It's all around us now
G                     Em
  Makes a snowy sound
Am               Bm              C
Forever you and me in the space between
D
Snow face can see

A, F#m, Bm, E
Tap to rate this tab
# A B C D E F G H I J K L M N O P Q R S T U V W X Y Z